Rush - Way The Wind Blows Text Guitar Tab

Learn the song with the online tablature player
The Way The Wind Blows Intro- Rush

Intro/Mildly Distorted Electric
e|-----------------------------------------15----15---15----15---------------|
B|-----10h13---10---13b15—13r10-10--13--10----10---------10-----10s/---------|
G|---------------------------------------------------------------------------|
D|---------------------------------------------------------------------------|
A|---------------------------------------------------------------------------|
E|---------------------------------------------------------------------------|

e|---------------------------------------------------------------------------|
B|---------------------------------------------------------------------------|
G|---12~-12---12-12----------------------0------0------0------0--------------|
D|---12~-12---12-12--------8—8b9-------0------0------0------0----------------|
A|---------------------10--------8--10------8------7------5------------------|
E|---------------------------------------------------------------------------|

e|----------------------------------------------------------15----15-15------|
B|---13~-10--13-10-13-13b15---13r10--------------13~--10-10----10-------1010-|
G|-----------------------------------12~---12-12-----------------------------|
D|---------------------------------------------------------------------------|
A|---------------------------------------------------------------------------|
E|---------------------------------------------------------------------------|

e|---15—15s/-----------------------------------------------------------------|
B|---------------------------------------------------------------------------|
G|---------------------------------------------------------------------------|
D|---------------------------------------------------------------------------|
A|----------------1--------1---------1----------1--3-------1---------1-------|
E|------------------3-3-3-3---3-3-3-3---3-3-3-3--------3-3---3-3-3-3---3-3-3-|

e|---------------------------------------------------------------------------|
B|---------------------------------------------------------------------------|
G|---------------------------------------------------------------------------|
D|------3-3-3-\-7-7-7--------------------------------------------------------|
A|------3-3-3-\-7-7-7--------------------------------------------------------|
E|--3---1-1-1-\-5-5-5--------------------------------------------------------|

| /  slide up
| \  slide down
| h  hammer-on
| p  pull-off
| ~  vibrato
| +  harmonic
| x  Mute note