Rush - Working Them Angels Text Guitar Tab

Learn the song with the online tablature player
                             Working Them Angels - Rush

e|---------------------------------------------------------------------------|
B|---------------------------------------------------------------------------|
G|--12-12-12-----9---12-12-12---7--------------------------------------------|
D|--12-12-12-----9---12-12-12---7--------------------------------------------|
A|--10-10-10-----7---10-10-10---5--------------------------------------------|
E|---------------------------------------------------------------------------|

e|---------------------------------------------------------------------------|
B|--------------1---2--------------------------------------------------------|
G|--1-1---------0---2--------------------------------------------------------|
D|--2-2--strum--2---2--------------------------------------------------------|
A|--2-2---------3------------------------------------------------------------|
E|---------------------------------------------------------------------------|

e|---------------------------------------------------------------------------|
B|------------5--------------------------------------------------------------|
G|--1-1-------5-------6---8--4--66-------------------------------------------|
D|--2-2-strum-5-strum-7---9--5--77------you can hear when these are added ---|
A|--2-2-------3-------7---9--5--77-------------------------------------------|
E|--------------------5---7--3--55-------------------------------------------|
These play in the background
e|---------------------------------------------------------------------------|
B|---------------------------------------------15--17-17---------------------|
G|-4-4--77--66---4-4///-12-12\\\6-6----------16------------------------------|
D|---------------------------------------------------------------------------|
A|---------------------------------------------------------------------------|
E|---------------------------------------------------------------------------|

e|---------------------------------------------------------------------------|
B|------5-5-----8-8---2-2-2-2----8-8--7--5-5 this part comes in near the end-|
G|-----------------------------repeat while other guitar plays chords--------|
D|---------------------------------------------------------------------------|
A|---------------------------------------------------------------------------|
E|---------------------------------------------------------------------------|

e|---------------------------------------------------------------------------|
B|---------------------------------------------------------------------------|
G|--12-12-12-----9---12-12-12---7--------------------------------------------|
D|--12-12-12-----9---12-12-12---7--------------------------------------------|
A|--10-10-10-----7---10-10-10---5--------------------------------------------|
E|---------------------------------------------------------------------------|

e|---------------------------------------------------------------------------|
B|--------------1---2--------------------------------------------------------|
G|--1-1---------0---2--------------------------------------------------------|
D|--2-2--strum--2---2--------------------------------------------------------|
A|--2-2---------3------------------------------------------------------------|
E|---------------------------------------------------------------------------|

e|---------------------------------------------------------------------------|
B|------------5--------------------------------------------------------------|
G|--1-1-------5-------6---8--4--66-------------------------------------------|
D|--2-2-strum-5-strum-7---9--5--77--------you can hear when these are added -|
A|--2-2-------3-------7---9--5--77-------------------------------------------|
E|--------------------5---7--3--55-------------------------------------------|
These play in the background
e|---------------------------------------------------------------------------|
B|---------------------------------------------15--17-17---------------------|
G|-4-4--77--66---4-4///-12-12\\\6-6----------16------------------------------|
D|---------------------------------------------------------------------------|
A|---------------------------------------------------------------------------|
E|---------------------------------------------------------------------------|

e|---------------------------------------------------------------------------|
B|------5-5-----8-8---2-2-2-2----8-8--7--5-5 this part comes in near the end-|
G|-----------------------------repeat while other guitar plays chords--------|
D|---------------------------------------------------------------------------|
A|---------------------------------------------------------------------------|
E|---------------------------------------------------------------------------|
Banjo Solo? Bear with me here, kinda iffy Just mess around with this area of the neck in general
e|---14h15-15-15-15---14h15-15-15-15--14h15-15-15-15-------12-12-14-14-15-15-|
B|---------------------------------------------------15-15-------------------|
G|---------------------------------------------------------------------------|
D|---------------------------------------------------------------------------|
A|---------------------------------------------------------------------------|
E|---------------------------------------------------------------------------|

e|---------------------------------------------------------------------------|
B|---------------------------------------------------------------------------|
G|--12-12-12-----9---12-12-12---7--------------------------------------------|
D|--12-12-12-----9---12-12-12---7--------------------------------------------|
A|--10-10-10-----7---10-10-10---5--------------------------------------------|
E|---------------------------------------------------------------------------|

e|---------------------------------------------------------------------------|
B|--------------1---2--------------------------------------------------------|
G|--1-1---------0---2--------------------------------------------------------|
D|--2-2--strum--2---2--------------------------------------------------------|
A|--2-2---------3------------------------------------------------------------|
E|---------------------------------------------------------------------------|

e|---------------------------------------------------------------------------|
B|------------5--------------------------------------------------------------|
G|--1-1-------5-------6---8--4--66-------------------------------------------|
D|--2-2-strum-5-strum-7---9--5--77--------you can hear when these are added -|
A|--2-2-------3-------7---9--5--77-------------------------------------------|
E|--------------------5---7--3--55-------------------------------------------|

These play in the background
e|---------------------------------------------------------------------------|
B|---------------------------------------------15--17-17---17-17-------------|
G|-4-4--77--66---4-4///-12-12\\\6-6----------16------------------------------|
D|---------------------------------------------------------------------------|
A|---------------------------------------------------------------------------|
E|---------------------------------------------------------------------------|

e|---------------------------------------------------------------------------|
B|------------5--------------------------------------------------------------|
G|--1-1-------5-------6---8--4--66-------------------------------------------|
D|--2-2-strum-5-strum-7---9--5--77------------------------------------ ------|
A|--2-2-------3-------7---9--5--77-------------------------------------------|
E|--------------------5---7--3--55-------------------------------------------|

| /  slide up
| \  slide down
| h  hammer-on
| p  pull-off
| ~  vibrato
| +  harmonic
| x  Mute note