Sanctus Real - Closer Chords

Intro Riff
 
         
         
         
         
         
X
3
2
1
3 fr
         
         
         
         
         
X
1
2
3
4
1
8 fr
         
         
         
         
         
1
3
4
2
1
1
3 fr
         
         
         
         
         
X
1
X
3
4
1
5 fr
         
         
         
         
         
3
2
1
1
1
4
10 fr
         
         
         
         
         
X
X
1
3
4
3

12 fr
         
         
         
         
         
X
4
3
1
2
1
3 fr
         
         
         
         
         
X
         
         
         
         
         
3
2
4
3 fr
         
         
         
         
         
1
3
4
2
1
1
         
         
         
         
         
2
1
3
4
3 fr
         
         
         
         
         
X
X
3
2
1
1
5 fr
         
         
         
         
         
X
X
1
3
4
3
7 fr
         
         
         
         
         
X
4
3
1
2
1

10 fr
         
         
         
         
         
X
1
2
3
4
X
10 fr
         
         
         
         
         
X
1
3
3
3
1
12 fr
         
         
         
         
         
3
2
1
1
1
4
         
         
         
         
         
2
3
3 fr
         
         
         
         
         
X
X
2
4
1
7 fr
         
         
         
         
         
X
1
3
4
2
1
2 fr
         
         
         
         
         
X
X
1
3
4
2
3 fr
         
         
         
         
         
X
3
2
4
1
4 fr
         
         
         
         
         
X
4
3
1
2
X

12 fr
         
         
         
         
         
1
3
4
1
1
1
         
         
         
         
         
X
X
1
3
2
2 fr
         
         
         
         
         
X
4
3
1
2
1
5 fr
         
         
         
         
         
X
1
2
3
4
1
5 fr
         
         
         
         
         
X
1
4
4
4
X
7 fr
         
         
         
         
         
4
3
1
1
1
X
7 fr
         
         
         
         
         
3
2
1
1
1
4

10 fr
         
         
         
         
         
1
3
4
2
1
1
12 fr
         
         
         
         
         
X
X
1
3
4
3
5 fr
         
         
         
         
         
X
X
         
         
         
         
         
2
7 fr
         
         
         
         
         
X
1
3
1
2
1
         
         
         
         
         
X
X
1
3
2
2
         
         
         
         
         
1
2
4
4
         
         
         
         
         
2
3
4
         
         
         
         
         
2
4

3 fr
         
         
         
         
         
X
3
2
1
5 fr
         
         
         
         
         
X
2
1
3
1
4
7 fr
         
         
         
         
         
X
1
3
1
2
X
7 fr
         
         
         
         
         
X
1
3
1
2
4
12 fr
         
         
         
         
         
1
3
1
1
4
1
         
         
         
         
         
X
1
3
1
2
1
7 fr
         
         
         
         
         
1
3
1
1
1
1
         
         
         
         
         
X
1
X
2
4
3
         
         
         
         
         
X
1
2
3
7 fr
         
         
         
         
         
1
X
1
1
1
X
2 fr
         
         
         
         
         
X
1
3
1
2
4

7 fr
         
         
         
         
         
1
3
1
1
4
1
9 fr
         
         
         
         
         
X
X
1
3
2
2
12 fr
         
         
         
         
         
X
2
1
3
1
4
         
         
         
         
         
X

Dadd9

variations
2 fr
         
         
         
         
         
X
4
3
1
2
2 fr
         
         
         
         
         
X
4
1
1
2
1
2 fr
         
         
         
         
         
X
3
2
1
4
1
2 fr
         
         
         
         
         
X
3
1
1
4
1
10 fr
         
         
         
         
         
X
X
3
2
1
4

F

variations
         
         
         
         
         
1
3
4
2
1
1
         
         
         
         
         
X
X
3
2
1
1
6 fr
         
         
         
         
         
X
4
3
1
2
1
4 fr
         
         
         
         
         
X
X
1
2
4
3
9 fr
         
         
         
         
         
X
1
3
3
3
1
11 fr
         
         
         
         
         
4
3
1
1
1
X

11 fr
         
         
         
         
         
3
2
1
1
1
4
No chord
    
Standard guitar tuning:
E
A
D
G
B
E
No capo

Verse

CI'm notG satisfEmied in tChis lDifetime CI'm folGlowing Emyou to tChe otDher side CThere'sG nothinEmg that cCan chDange my mind CYou're Gall I nEmeed C D

Interlude

C G C D

Verse

CYou're Gthe onlEmy tie thCat biDnds my heart CAway frGom you EmI'm fallCing aDpart CWe needG to be Emcloser tChan wDe are CYou're Gall I nEmeed C D

Chorus

CSo what cGan I do toC get cloDser? CI know thGere is morCe my heaDrt can bear CI give you Gcontrol 'causDe I need you CTo take Dme thereG

Verse

CLike a biGrd flying sEmouth I'm seeCking Dyou out CAnd thereG's no rope Emthat can tiCe me Ddown CI'm runniGng home, EmI'm a slavCe setD free CYou'rGe alEml I neCed D

Bridge

Em7I am Bm7waiting Bm7Draw Bm7me closer Em7I am wDaiting Dadd9Make me Cstronger
Guitar 1

Em7 Bm7 Bm7 Bm7 Em7 D Dadd9 C

eb||----------|--10----7--|-----------|--0----0--| Bb||--8----10-|--7-----7--|--8----7---|--3----1--| Gb||--7----7--|--7-----7--|--7----7---|--0----0--| Db||--9----9--|--7-----7--|--9----7---|--4----2--| Ab||----------|-----------|-----------|----------| Eb||----------|-----------|-----------|----------|

Solo

eb||----------------------------------|----------------------------------|
Bb||--12------12------12------12--13--|--13------13------12------12------|
Gb||------12------12------12----------|------12------12------12------12--|
Db||----------------------------------|----------------------------------|
Ab||----------------------------------|----------------------------------|
Eb||----------------------------------|----------------------------------|
|----------------------------------|--------------------------|
|--12------12------12------12------|--------------------------|
|------12------12------12------12--|---14------12-------------|
|----------------------------------|--------------------------|
|----------------------------------|--------------------------|
|----------------------------------|--------------------------|
|--12-------12------------------|------------------------15--17--|
|--15b------15b------15--17-----|--15----15--17--15—-17b---------|
|-------------------------------|--------------------------------|
|-------------------------------|--------------------------------|
|-------------------------------|--------------------------------|
|-------------------------------|--------------------------------|
|--17--15--15--17--19--17--17------|--17--19--19--20--20--19--19--17—15-|
|----------------------------------|------------------------------------|
|----------------------------------|------------------------------------|
|----------------------------------|------------------------------------|
|----------------------------------|------------------------------------|
|----------------------------------|------------------------------------|

Solo chords

Em D F G C


All Content on this page is the property of the copyright owner of the original composition.