Selecter - Missing Words Text Guitar Tab

Learn the song with the online tablature player
INTRO

G:|--------23--------------23--------------|
D:|----------------------------------------|
A:|--------------------------------5--5--5-|
E:|3---------------3-----------------------|

VERSE
X 4

G:|--------------------------------|
D:|--------------------------------|
A:|555-555-555-555-----------------|
E:|----------------666-666-666-666-|

PRE CHORUS:

G:|--------3---------------3-------|
D:|--------------------------------|
A:|--------------------------------|
E:|3---------------3---------------|

G:|---------7777777|
D:|----------------|
A:|555555555-------|
E:|----------------|

CHORUS
X 2

G:|----------------------------------|
D:|----------------------------------|
A:|----------------------------------|
E:|3-3-30123-3-3013-6-6-60346-6-6046-|

3RD TIME
G:|--------|
D:|--------|
A:|5--5--5-|
E:|--------|

VERSE
X 4

G:|--------------------------------|
D:|--------------------------------|
A:|555-555-555-555-----------------|
E:|----------------666-666-666-666-|

PRE CHORUS:

G:|--------3---------------3-------|
D:|--------------------------------|
A:|--------------------------------|
E:|3---------------3---------------|

G:|---------7777777|
D:|----------------|
A:|555555555-------|
E:|----------------|

CHORUS
X 2

G:|----------------------------------|
D:|----------------------------------|
A:|----------------------------------|
E:|3-3-30123-3-3013-6-6-60346-6-6046-|

3RD TIME:
G:|--------|
D:|--------|
A:|5--5--5-|
E:|--------|

BRIDGE
X 4

G:|--------------------------------|
D:|--------------------------------|
A:|555-555-555-555-----------------|
E:|----------------666-666-666-666-|

CHORUS
X 2

G:|----------------------------------|
D:|----------------------------------|
A:|----------------------------------|
E:|3-3-30123-3-3013-6-6-60346-6-6046-|

3RD TIME:
G:|--------|
D:|--------|
A:|5--5--5-|
E:|--------|

ENDING: PLAY CHORUS RIFF ONCE, BY THEN THE SONG WOULD OF FADED.

G:|----------------------------------|
D:|----------------------------------|
A:|----------------------------------|
E:|3-3-30123-3-3013-6-6-60346-6-6046-|

THATS IT. THIS SONG NEEDED TO BE TABBED, KEEP IT 2 TONE AND ENJOY. CHEERS!!!