Senses Fail - Lady In A Blue Dress Acoustic Text Guitar Tab

Learn song with the online tabulature player
----------------------------------------------------------------------------
            Lady In A Blue Dress Acoustic - Senses Fail
----------------------------------------------------------------------------

Tabbed by: Zac Westdyke
Email: zacwestmx@yahoo.com

Tuning: Dropped D

So I was listening to the song and thought it was amazing and couldn't
find a good tab for it so I sat down and figured out something that
sounds pretty good; not perfect, but good enough
I guess the top three strings aren't entirely necessary,
but I think it sounds much better and more full-bodied with them


INTRO:
e|--5-----0---2-----0----------------------------------------------------|
B|--3-----3---3-----3----------------------------------------------------|
G|--x-----x---x-----x-----Repeat Four Times------------------------------|
D|--0-----0---0-----0----------------------------------------------------|
A|--0-----0---0-----0----------------------------------------------------|
D|--0-----0---0-----0----------------------------------------------------|

VERSE:
Its the same as the intro except you strum it differently.
Just listen to the song.


CHORUS:

    And you say,  That you want respect,  Well then you'd better get some..
e|-----------x-----------------------x----------------------x--------------|
B|-----------3-----------------------x----------------------x--------------|
G|-----------2-----------------------9----------------------11-------------|
D|-----------0-----------------------7----------------------9--------------|
A|-----------0-----------------------7----------------------9--------------|
D|-----------0-----------------------7----------------------9--------------|

    ...For yourself
e|---------------x---------------------------------------------------------|
B|---------------5---------------------------------------------------------|
G|---------------7---------------------------------------------------------|
D|---------------5---------------------------------------------------------|
A|---------------5---------------------------------------------------------|
D|---------------5---------------------------------------------------------|

This is the picking in the background during the chorus:

You say...
e|----5----------------------------------------------------------------------|
B|-------7-------5h7--5-----7------------------------------------------------|
G|-----------7-----------7-----7---------------------------------------------|
D|---------------------------------------------------------------------------|
A|---------------------------------------------------------------------------|
D|---------------------------------------------------------------------------|

That you want respect..
e|---------------5---------------------------------------------------------|
B|------------------7-----5h8--7-----5-------------------------------------|
G|---------------------7----------7-----7----------------------------------|
D|-------------------------------------------------------------------------|
A|-------------------------------------------------------------------------|
D|-------------------------------------------------------------------------|

Well then you better..
e|---------------5---------------------------------------------------------|
B|------------------7-----5h8--7-----5-------------------------------------|
G|---------------------7----------7-----7----------------------------------|
D|-------------------------------------------------------------------------|
A|-------------------------------------------------------------------------|
D|-------------------------------------------------------------------------|

For yourself..
e|-------------------------------------------------------------------------|
B|-------5-----------------------------------------------------------------|
G|----------7-7-7-7-7-7-7--------------------------------------------------|
D|-------------------------------------------------------------------------|
A|-------------------------------------------------------------------------|
D|-------------------------------------------------------------------------|

Both of these parts are repeated twice during the chorus


VERSE: same as before
CHORUS: same as before

BREAKDOWN thing:

   Don't, try,  to be cute   with   me
e|--x/--------x----x-------x/-x-----x--------------------------------------|
B|--x/--------x----x-------x/-x-----x--------------------------------------|
G|--11/-------14---7-------11/12----7--------------------------------------|
D|--x/--------x----x-------x/-x-----x--------------------------------------|
A|--9/--------12---5-------9/-10----5--------------------------------------|
D|--x/--------x----x-------x/-x-----x--------------------------------------|

Cause I,  know,  you hate yourself
e|---x/--------x------x-------x/-x-----x-----------------------------------|
B|---x/--------x------x-------x/-x-----x-----------------------------------|
G|---11/-------14-----7-------11/12----7-----------------------------------|
D|---x/--------x------x-------x/-x-----x-----------------------------------|
A|---9/--------12-----5-------9/-10----5-----------------------------------|
D|---x/--------x------x-------x/-x-----x-----------------------------------|

And you'd, end   your   stupid   life now
e|---x/--------x----x---------x/-x-----x---------------------------------|
B|---x/--------x----x---------x/-x-----x---------------------------------|
G|---11/-------14---7---------11/12----7---------------------------------|
D|---x/--------x----x---------x/-x-----x---------------------------------|
A|---9/--------12---5---------9/-10----5---------------------------------|
D|---x/--------x----x---------x/-x-----x---------------------------------|

But you're, too spineless
e|---x/-----------x----x---------------------------------------------------|
B|---x/-----------x----x---------------------------------------------------|
G|---11/----------14---7---------------------------------------------------|
D|---x/-----------x----x---------------------------------------------------|
A|---9/-----------12---5---------------------------------------------------|
D|---x/-----------x----x---------------------------------------------------|

VERSE: repeat first verse
CHORUS: the last time the chorus is played, its a little different,
 somewhat similar to the verses:


   And you say,  That you want respect,  Well then you'd better get some..
e|-----------5/--------------7----5------------------2-----0----------|
B|-----------3/--------------5----3------------------3-----3----------|
G|-----------x/--------------7----x------------------x-----x----------|
D|-----------0/--------------0----0------------------0-----0----------|
A|-----------0/--------------0----0------------------0-----0----------|
D|-----------0/--------------0----0------------------0-----0----------|

    ...For yourself
e|---------------x---------------------------------------------------------|
B|---------------3---------------------------------------------------------|
G|---------------2--------REPEAT ONCE AND END ON THAT LAST CHORD-----------|
D|---------------0---------------------------------------------------------|
A|---------------0---------------------------------------------------------|
D|---------------0---------------------------------------------------------|

And thats the whole song, may seem complicated but its fairly
simple once you get the strumming down and figure out exactly
what's going on lol
If you have any questions or comments just ask.
Enjoyyy


| /  slide up
| \  slide down
| h  hammer-on
| p  pull-off
| ~  vibrato
| +  harmonic
| x  Mute note
============================================================================