Sepultura - Roots Bloody Roots Text Bass Tab

Learn the song with the online tablature player
INTRO/VERSE

G||--------------------------|
D||--------------------------|
A||--------------------------|
E||--------------------------|
B||--0--1--1--0--1--1--0--1--|

CHORUS

A||--------------------------|--------------------------|
E||--------------------------|--------------------------|
B||--0--1--1--0--1--1--1--2--|--0--1--1--0--1--1--1--2--|

  Distortion on               Distortion off

BREAK IN VERSE:

A||-----------------------------|
E||-----------------------------|
B||--5--5--3--3--2--2--0--2--5--|

FIRST BRIDGE:

A||--------|  PLAY     |------------|
E||--------|  FOUR     |------------|
B||--0--0--|  TIMES    |--7--7--7--|

                        THIS PART GOES
                         REALLY FAST

OUTRO

A||--------------------|  PLAY      |--------------------------|
E||--------------------|  EIGHT     |--------------------------|
B||--1--0--0--1--0--0--|  TIMES     |--2--2--2--2--2--2--2--2--|

A||--------------------------------|  PLAY
E||--------------------------------|  FOUR
B||--1--0--2--1--1--0--2--1--1--1--|  TIMES

A||------| PLAY    |--------------------| PLAY
E||------|         |--------------------| THIS SUCKER
B||--5--| TWICE   |--1--1--1--1--1--0--| 'TIL THE END OF THE SONG