Seu Jorge - Life On Mars Chords

 
No chord
    
Standard guitar tuning:
E
A
D
G
B
E
No capo
E|-1---1---3----2-3-0---3---1---0---|
B|-1---1---1----1-1-1---3---1---1---|
G|-2---2---2----2-2-2---3---2---0---|   REPEAT
D|-3---3---1----0-0-0---5---3---2---|
A|-3---3----------------5---3---3---|
E|-1---0----------------3---1---0---|
E|-------------8-------5---6---7------|
B|-4---5---9---9---4---5---6---7------|
G|-5---5---10--8---5---5---7---8------|
D|-6---6---10--8---6---7---6---9------|
A|-6---7---8---9---4---7---8---9------|
E|---------------------5---6---7------|
E|-6---6---3-------1---1---3---5---6-----|
B|-6---8---3---3---1---1---4---6---7-----|
G|-7---8---3---2---2---1---5---7---8-----|   REPEAT
D|-8---8---5---4---3---3---5---7---8-----|
A|-8---6---5-------3---3---3---5---6-----|
E|-6---6---3---2---1---1-----------------|
E|-3---2---1---------------3---4---5---6-------|
B|-3---2---1---0---1---1---3---4---5---6---8---|
G|-3---3---2---0---2---1---3---5---5---7---8---|   BACK TO BEGINNING
D|-5---2---3---2---3---1---5---6---7---8---8---|
A|-5---4---3---2---3---1---5---6---7---8---6---|
E|-3---2---1---0---1---2---3---4---5---6-------|

All Content on this page is the property of the copyright owner of the original composition.