Shadows - Apache Text Guitar Tab

Learn the song with the online tablature player
---------------5-3-0|-------------5-3-0|------------------|---------------------|
---1-3b------1------|---1-3b----1------|------------------|---------------------|
-2---------2--------|-2-------2--------|---2---2----------|---2---2-------------|
--------------------|------------------|-2---2---2-4-2---2|-2---2---2-4-2---2---|
--------------------|------------------|---------------5--|---------------5-----|
--------------------|------------------|------------------|---------------------|

-------------------|------------------|--------------x2--------------------|
-------------------|------------------|------------------------------------|
---7---7-----------|---2---2----------|------------------------------------|
-7---7---7-9-7----7|-2---2---2-4-2---2|---333---3333---333---3333-2--------|
---------------10--|---------------5--|-3-----3------3-----3--------00-----|
-------------------|------------------|------------------------------------|

--------------------------|---------------------3-------6---6v|
-----1-0-0h1-3-3/5-5\3-1--|-----1-0-0h1-3---3/5---5-5/8---8-8v|
---2---------------------2|---2-----------0-------------------|
-3------------------------|-3---------------------------------|
--------------------------|-----------------------------------|
--------------------------|-----------------------------------|

----------------------------|--------------x2------------------|
-----1--0-0h1-3-3/5--5\3-1--|----------------------------------|
---2-----------------------2|----------------------------------|
-3--------------------------|---333---3333---333---3333-2------|
----------------------------|-3-----3------3-----3--------0-0--|
----------------------------|----------------------------------|

------------------------|----------------------|---------------------|
------------------------|----------------------|---------------------|
----2---2---------------|----2---2-------------|---7---7-------------|
--2---2---44444---2----2|--2---2---44444-2---2-|-7---7---99999-7----7|
---------------------5--|------------------5---|-----------------10--|
------------------------|----------------------|---------------------|

--------------------|--------------------------|-------------------------------|
--------------------|-----1-0-0h1-3-3/5-5\3-1--|-----1-0-0h1-3-----------------|
---2---2------------|---2----------------------|---2-----------00000-3-2-3-2-0-|
-2---2---44444-2---2|-3------------------------|-3-----------------------------|
-----------------5--|--------------------------|-------------------------------|
--------------------|--------------------------|-------------------------------|

----------------------|--------------------------------|
-----1-0-0h1-3/5-5\3-2|--------------------------------|
---2------------------|--------------------------------|
-3--------------------|---333---3333---333---3333-2----|
----------------------|-3-----3------3-----3--------0-0|
----------------------|--------------------------------|

-----------------------|--------|-----5-3-0--------------------------------------|
-----------------------|---1-3b-|---1--------------------------------------------|
-----------------------|-2------|-2----------repeat til fade---------------------|
-----------------------|--------|------------------------------------------------|
-------------------88-7|--------|------------------------------------------------|
-11111-55555-88888-----|--------|------------------------------------------------|