Shakira - Te Aviso Te Anuncio Chords

 

F

variations
         
         
         
         
         
1
3
4
2
1
1
         
         
         
         
         
X
X
3
2
1
1
6 fr
         
         
         
         
         
X
4
3
1
2
1
4 fr
         
         
         
         
         
X
X
1
2
4
3
9 fr
         
         
         
         
         
X
1
3
3
3
1
11 fr
         
         
         
         
         
4
3
1
1
1
X

11 fr
         
         
         
         
         
3
2
1
1
1
4
         
         
         
         
         
X
1
3
4
2
1
7 fr
         
         
         
         
         
1
3
4
1
1
1
         
         
         
         
         
X
1
3
4
2
X
7 fr
         
         
         
         
         
X
X
3
1
1
1
9 fr
         
         
         
         
         
X
X
1
3
4
2
11 fr
         
         
         
         
         
X
4
3
1
2
X
         
         
         
         
         
X
1
2
3
5 fr
         
         
         
         
         
1
3
4
2
1
1
2 fr
         
         
         
         
         
X
1
1
1
4
         
         
         
         
         
X
X
1
2
2 fr
         
         
         
         
         
3
2
1
1
1
4
7 fr
         
         
         
         
         
X
X
1
3
4
3

9 fr
         
         
         
         
         
X
4
3
1
2
1
12 fr
         
         
         
         
         
X
1
3
3
3
1
         
         
         
         
         
3
2
4
3 fr
         
         
         
         
         
1
3
4
2
1
1
         
         
         
         
         
2
1
3
4
3 fr
         
         
         
         
         
X
X
3
2
1
1
5 fr
         
         
         
         
         
X
X
1
3
4
3
7 fr
         
         
         
         
         
X
4
3
1
2
1

10 fr
         
         
         
         
         
X
1
2
3
4
X
10 fr
         
         
         
         
         
X
1
3
3
3
1
12 fr
         
         
         
         
         
3
2
1
1
1
4
         
         
         
         
         
2
3
3 fr
         
         
         
         
         
X
X
2
4
1
7 fr
         
         
         
         
         
X
1
3
4
2
1
2 fr
         
         
         
         
         
X
X
1
3
4
2
3 fr
         
         
         
         
         
X
3
2
4
1
4 fr
         
         
         
         
         
X
4
3
1
2
X

12 fr
         
         
         
         
         
1
3
4
1
1
1
No chord
    
Standard guitar tuning:
E
A
D
G
B
E
No capo
 INTRO DESPUES DEL ACORDEON

F Bm F Bm

e----------------- B----------------- G----------------- D-4-4-2-2-0-0----- A-----------4-4-2- E-----------------
BmNunca pense que doAliera el amor Bmasi Bmcuando se entierra en elA medio de un no yBm un si Aes un dia ella y otro Gdia yo Bm me estas dejando Asin cGorazonF y cero de razon CORO Ay te aBmviso, te anAuncio que hGoy renuncio / a Ftus negocios sucios ya saBmbes que estAoy de ti vaGcunada / aF prueba de patadas por Bmti me quedeA como MoGnalisa / siFn llanto y sin sonrisa que el cBmielo y tu mAadre cuidenG de ti... Fme voy / sera mejBmor asi BREAK

F Bm F Bm

        e-----------------
        B-----------------
        G-----------------
        D-4-4-2-2-0-0-----
        A-----------4-4-2-
        E-----------------
BmSe que olvidarte nAo es asunto seBmncillo Bmte me clavaste en Ael cuerpo comoBm un cuchillo Apero todo lo que entraG ha de Bmsalir y los que están AtendrGán queF partir empezando por mi CORO Ay te aBmviso, te anAuncio que hGoy renuncio / a Ftus negocios sucios ya saBmbes que estAoy de ti vaGcunada / aF prueba de patadas por Bmti me quedeA como MoGnalisa / siFn llanto y sin sonrisa que el cBmielo y tu mAadre cuidenG de ti... Fme voy oh no no no......... PUENTE EmTal vez tu no eres eseBm para mi EmNo se como se puede enBmgañar asi PeroA erGa asFi SIN ACORDES ACOMPAÑA EL SIGUIENTE PUNTEO. HAZLO 2 VECES
        e--------------------------------------------------------------------
        B--------------------------------------------------------------------
        G--------------------------------------------------------------------
        D--------------------------------------------------------------------
        A-2-2-4-4-5-5-7-7-9-9-10-10-9-9-7-7 * 2-2-4-4-5-5-4-4----4-4-5-5-4-4-
        E----------------------------------------------------3-3-------------
Es tan patetico neurotico satirico psicotico que no lo ves / el tango no es de tres llevo engañando a este par y me sale al reves pero voy a intentarlo una y otra vez

Solo

DESPUES DE LA ESTROFA SIN ACORDES) LOS ACORDES PARA ACOMPAÑAR SON Bm-A-G-F
        e-------------------------------------------------------
        B-------------------------------------------------------
        G-------------------------------------------------------
        D-------------------------------------------------------
        A 2-2-2-2-2-2-2-5-5-5-5-5-5----------5/7--5/7--5/7--5/2-
        E---------------------------3-3-3-3-3-3-----------------
        e------------------------------------------------------------------
        B------------------------------------------------------------------
        G------------------------------------------------------------------
        D------------------------------------------------------------------
        A--2-2-2-2-2-2-5-5-5-5-5-5-7-7-7-7-7-7-7-9-9-9-9-9-9-9-9-7-7-5-5-4-
        E------------------------------------------------------------------
CORO BmAy AteG aFviso, te anuncio que hoy renuncio / a tus negocios sucios por ti me quede como Monalisa / sin llanto y sin sonrisa te aviso que estoy de ti vacunada / y no me importa nada que el cielo y tu madre cuiden de ti / me voy sera mejor asi ya me voy... ya me fui es mejor asi BmAy AquGe Fel cielo y tu madre cuiden de ti... me voy hay que el cielo y tu madre cuiden de ti... me voy sera mejor asi Copied from atame.org Very very special thanks to Javier Maldonado.

All Content on this page is the property of the copyright owner of the original composition.