Siouxsie And The Banshees - Arabian Knights Text Guitar Tab

Learn song with the online tabulature player
Band: Siouxsie And The Banshees
Song: Arabian Knights
Tuning: Standard
Tabbed By: amaranth_todd



Fig. 1

  E E E E E E E E   E E E E E E E E
|-----------------|--------------------|
|-----------------|--------------------|
|-----------------|--------------------|
|-0-0-0-7-8-8-8-7-|-8-8-8-7-5-5-5-5----|


Fig. 2

  E E E E E E E E   E E E E E E E E    E E E E E E E E
|-----------------|-----------------||--------------------|
|-----------------|-----------------||--------------------|
|-----------------|-----------------||--------------------|
|-0-0-0-7-5-5-5-7-|-8-8-8-7-5-5-5-5-||-8-8-8-8-8-8-8-8----|
                                    (play this on last time)  
          
Fig. 3 

  E E E E E E E E    E  E  E  E  E  E  E  E   E E E E E E E E    E  E  E  E  E  E  E  E
|-----------------|-------------------------|-----------------|-------------------------|
|-----------------|-------------------------|-----------------|-------------------------|
|-7-7-7-7-7-7-7-7-|-10-10-10-10-10-10-10-10-|-5-5-5-5-5-5-5-5-|-12-12-12-12-12-12-12-12-|
|-----------------|-------------------------|-----------------|-------------------------|


Fig. 4

   E  E  E  E  E  E  E  E    E  E  E  E  E  E  E  E   E E E E E E E E   E E E E E E E E
|-------------------------|-------------------------|-----------------|-----------------|
|-------------------------|-------------------------|-----------------|-----------------|
|-10-10-10-10-10-10-10-10-|-10-10-10-10-10-10-10-10-|-2-2-2-2-2-2-2-2-|-2-2-2-2-2-2-2-2-|
|-------------------------|-------------------------|-----------------|-----------------|

  E E E E E E E E   E E E E E E E E   E E E E E E E E   E E E E E E E E
|-----------------|-----------------|-----------------|-----------------|
|-----------------|-----------------|-----------------|-----------------|
|-----------------|-----------------|-2-2-2-2-2-2-2-2-|-2-2-2-2-2-2-2-2-|
|-3-3-3-3-3-3-3-3-|-3-3-3-3-3-3-3-3-|-----------------|-----------------|
(^---^---^---^---^---^--play this the FIRST time!--^---^---^---^---^---^)

  E E E E E E E E   E E E E E E E E   E E E E E E E E   E E E E E E E E
|-----------------|-----------------|-----------------|-----------------|
|-----------------|-----------------|-----------------|-----------------|
|---------------2-|-7-7-7-7-7-7-7-7-|-2-2-2-2-2-2-2-2-|-2-2-2-2-2-2-2-2-|
|-3-3-3-3-3-3-3---|-----------------|-----------------|-----------------|
(^---^---^---^---^---^-play this the SECOND time!--^---^---^---^---^---^)


*rest 4 bars*
Fig. 1 x4
Fig. 2 x4
Fig. 3 x2
Fig. 1 x6
Fig. 2 x4
Fig. 4 x2
Fig. 1 x4
Fig. 2 x2
Fig. 3 x2
Fig. 1 x6

Please rate and comment!

--------------------------------------------------------------------------------


Duration Legend
---------------
W - whole; H - half; Q - quarter; E - 8th; S - 16th; T - 32nd; X - 64th; a - acciaccatura
+ - note tied to previous; . - note dotted; .. - note double dotted
Uncapitalized letters represent notes that are staccato (1/2 duration)
Irregular groupings are notated above the duration line
Duration letters will always appear directly above the note/fret number it represents the
duration for.  Duration letters with no fret number below them represent rests.  Multi-
bar rests are notated in the form Wxn, where n is the number of bars to rest for.  Low
melody durations appear below the staff