Six Feet Under - Rest In Pieces Text Guitar Tab

Learn the song with the online tablature player
Riff 1.1

|-------------------------------|
|-------------------------------|
|4/5-5-5\4-4-4/5-5-5/4-4-4/5-5\4|
|4/5-5-5\4-4-4/5-5-5/4-4-4/5-5\4|
|2/3-3-3\2-2-2/3-3-3/2-2-2/3-3\2|
|-------------------------------|

Riff 1.2

|-------------------------------|
|-------------------------------|
|4/5-5-5\4-4-4/5-5-5/4-4-4/5-5\4|
|4/5-5-5\4-4-4/5-5-5/4-4-4/5-5\4|
|-------------------------------|
|-------------------------------|

Riff 1.3

|-------------------------------|
|-------------------------------|
|4/5-5-5\4-4-4/5-5-5/4-4-4/5-5\4|
|4/5-5-5\4-4-4/5-5-5/4-4-4/5-5\4|
|2/3-3-3\2-2-2/3-3-3/2-2-2/3-3\2|
|2/3-3-3\2-2-2/3-3-3/2-2-2/3-3\2|

Riff 2.1
|----------------------------|
|----------------------------|
|----------------------------|
|2---------------------8-7-8-|
|2---------------------8-7-8-|
|0-0-0-0-0-0-0-0-0-0-0-6-5-6-|

Riff 2.2

|----------------------------|
|----------------------------|
|----------------------------|
|7---------------------8-7-8-|
|7---------------------8-7-8-|
|5-0-0-0-0-0-0-0-0-0-0-6-5-6-|

Riff 2.3

|------------------------------|
|------------------------------|
|------------------------------|
|7-----3-----4/5---------8-7-8-|
|7-----3-----4/5---------8-7-8-|
|5-0-0-1-0-0-2/3-0-0-0-0-6-5-6-|

Riff 2.4

|----------------------------|
|----------------------------|
|----------------------------|
|7---------------------------|
|7---------------------------|
|5-0-0-0-0-0-0-0-0-0-0-0-0-0-|

Riff 3.1

|--------------------------------|
|--------------------------------|
|--------------------------------|
|7\6---6\5---5\4-3/4---4/5---5/6-|
|7\6---6\5---5\4-3/4---4/5---5/6-|
|5\4-0-4\3-0-3\2-1/2-0-2/3-0-3/4-|

Riff 4

|--------------------------------|
|--------------------------------|
|7-------7-----------4-------4---|
|7---6---7---6---3---4---3---4---|
|5---6---5---6---3---2---3---2---|
|5---4---5---4---1---2---1---2---|

Riff 5

|--------------------|
|--------------------|
|--------------------|
|2---3---2---5---3-5-|
|2---3---2---5---3-5-|
|0-0-1-0-0-0-3-0-1030|
Enjoy!!!