Skillet - Monster Text Guitar Tab

Learn the song with the online tablature player
Song: Monster
Artist: Skillet

Intro/Verse 1 *x5
D|-------------|------------|------------|-----------|
A|-------------|------------|------------|-----------|
F|-------------|------------|------------|-----------|
C|--5-5-5-0-00-|-8-8-8-0-00-|-5-5-5-0-00-|-7-10-5-3--|
G|--5-5-5-0-00-|-8-8-8-0-00-|-5-5-5-0-00-|-7-10-5-3--|
C|--5-5-5-0-00-|-8-8-8-0-00-|-5-5-5-0-00-|-7-10-5-3--|

D|-------------|------------|------------|----------------------|
A|-------------|------------|------------|----------------------|
F|-------------|------------|------------|----------------------|
C|--5-5-5-0-00-|-8-8-8-0-00-|-5-5-5-0-00-|-8-8-8-8-10-10-10-10--|
G|--5-5-5-0-00-|-8-8-8-0-00-|-5-5-5-0-00-|-8-8-8-8-10-10-10-10--|
C|--5-5-5-0-00-|-8-8-8-0-00-|-5-5-5-0-00-|-8-8-8-8-10-10-10-10--|

Chorus *x2
D|-----------|----------|----------|-----------|
A|-----------|----------|----------|-----------|
F|-----------|----------|----------|-----------|
C|--00000000-|-33333333-|-88888888-|-7-10-5-3--|
G|--00000000-|-33333333-|-88888888-|-7-10-5-3--|
C|--00000000-|-33333333-|-88888888-|-7-10-5-3--|
        *x2
D|------------|-----------|
A|------------|-----------|
F|------------|-----------|
C|--00-0-33-3-|-88-8-5-7--|
G|--00-0-33-3-|-88-8-5-7--|
C|--00-0-33-3-|-88-8-5-7--|

Post-chorus/Verse 2 *x2
D|-------------|------------|------------|-----------|
A|-------------|------------|------------|-----------|
F|-------------|------------|------------|-----------|
C|--5-5-5-0-00-|-8-8-8-0-00-|-5-5-5-0-00-|-7-10-5-3--|
G|--5-5-5-0-00-|-8-8-8-0-00-|-5-5-5-0-00-|-7-10-5-3--|
C|--5-5-5-0-00-|-8-8-8-0-00-|-5-5-5-0-00-|-7-10-5-3--|

D|-------------|------------|------------|----------------------|
A|-------------|------------|------------|----------------------|
F|-------------|------------|------------|----------------------|
C|--5-5-5-0-00-|-8-8-8-0-00-|-5-5-5-0-00-|-8-8-8-8-10-10-10-10--|
G|--5-5-5-0-00-|-8-8-8-0-00-|-5-5-5-0-00-|-8-8-8-8-10-10-10-10--|
C|--5-5-5-0-00-|-8-8-8-0-00-|-5-5-5-0-00-|-8-8-8-8-10-10-10-10--|

Chorus *x3
D|-----------|----------|----------|-----------|
A|-----------|----------|----------|-----------|
F|-----------|----------|----------|-----------|
C|--00000000-|-33333333-|-88888888-|-7-10-5-3--|
G|--00000000-|-33333333-|-88888888-|-7-10-5-3--|
C|--00000000-|-33333333-|-88888888-|-7-10-5-3--|
        *x2
D|------------|-----------|
A|------------|-----------|
F|------------|-----------|
C|--00-0-33-3-|-88-8-5-7--|
G|--00-0-33-3-|-88-8-5-7--|
C|--00-0-33-3-|-88-8-5-7--|

Bridge
D|-----------|----------|----------|-----------|
A|-----------|----------|----------|-----------|
F|-----------|----------|----------|-----------|
C|--55555555-|-00000000-|-33333333-|-88888888--|
G|--55555555-|-00000000-|-33333333-|-88888888--|
C|--55555555-|-00000000-|-33333333-|-88888888--|

D|-----------|----------|----------|-----------|
A|-----------|----------|----------|-----------|
F|-----------|----------|----------|-----------|
C|--55555555-|-00000000-|-77777777-|-7-10-5-3--|
G|--55555555-|-00000000-|-77777777-|-7-10-5-3--|
C|--55555555-|-00000000-|-77777777-|-7-10-5-3--|

Fill
D|-----------|----------|-------------------|
A|-----------|----------|-------------------|
F|-----------|----------|-------------------|
C|--00000000-|-33333333-|-1010101010101010--|
G|--00000000-|-33333333-|-1010101010101010--|
C|--00000000-|-33333333-|-1010101010101010--|

Chorus *x3
D|-----------|----------|----------|-----------|
A|-----------|----------|----------|-----------|
F|-----------|----------|----------|-----------|
C|--00000000-|-33333333-|-88888888-|-7-10-5-3--|
G|--00000000-|-33333333-|-88888888-|-7-10-5-3--|
C|--00000000-|-33333333-|-88888888-|-7-10-5-3--|
        *x2
D|---------|-----------|
A|---------|-----------|
F|---------|-----------|
C|--00--33-|-88-8-5-7--|
G|--00--33-|-88-8-5-7--|
C|--00--33-|-88-8-5-7--|
        *x2
D|------------|-----------|
A|------------|-----------|
F|------------|-----------|
C|--00-0-33-3-|-88-8-5-7--|
G|--00-0-33-3-|-88-8-5-7--|
C|--00-0-33-3-|-88-8-5-7--|