Slash - Anastasia Text Guitar Tab

Learn the song with the online tablature player
I DID NOT TAB THIS SONG. All credit to 33SLASH33.
I only made a text version for people that do not have GuitarPro.
Enjoy!

Legend
L - tied note
x - dead note
h - hammer on/pull off
b - bend
s - slide
~ - vibrato
g - ghost note
> - accentuated note
t - trill
M - palm mute
. - staccato
P - popping (bass)
S - slapping (bass)
+ - tapping
W - wide vibrato
< - fade in
w - whammy bar
= - tremolo picking
v - brush up
^ - brush down
V - pick stroke up
n - pick stroke down

D#|----------------------------|----------------------------|
A#|-----------6----------------|-----------6----------------|
F#|--------7-----7-------------|--------7-----7-------------|
C#|-----7-----------7-----7----|-----7-----------7-----7----|
G#|--5-----------------5-------|--5-----------------5-------|
D#|----------------------------|----------------------------|

-----------1----------------|-----------1----------------|
--------3-----3-------------|--------3-----3-------------|
-----3-----------3-----3----|-----3-----------3-----3----|
----------------------------|----------------------------|
--1-----------------1-------|--1-----------------1-------|
----------------------------|----------------------------|

-----------1----------------|-----------1-----------1----|
--------3-----3-------------|--------3-----------3-------|
-----0-----------0-----0----|-----0-----------0----------|
----------------------------|----------------------------|
--2-----------------2-------|--------------2-------------|
----------------------------|--3-------------------------|

----------------------------|----------------------------|
-----------5-----------5----|----------------------------|
--------5-----5-------------|--5--------5--0-----0-------|
-----5-----------5----------|-----5-----------2----------|
--3-----------------3-------|--------3--------------3----|
----------------------------|----------------------------|

----------------------------|
-----------5-----------5----|
--------6-----------6-------|
-----5-----------5----------|
--4-------------------------|
--------------5-------------|

----------------------------------------------------|
--5--------5--------5-----3-----------2-------------|
----------------------------------------------------|
--5--------5--------5-----3-----------2-------------|
----------------------------------------------------|
--3--------3----------------------------------------|

----------------------------|-----------------------0----|
-----------6----------------|-----------6--------3-------|
--------7-----7-------------|--------7--------2----------|
-----7-----------7-----7----|-----7----------------------|
--5-----------------5-------|--5-----------3-------------|
----------------------------|----------------------------|

-----------1-----------0----|----------------------------|
--------3-----------2-------|-----------5----------------|
-----3-----------2----------|--------5--------------4----|
----------------------------|-----5--------------5-------|
--1-----------0-------------|--3--------------5----------|
----------------------------|--------------3-------------|

----------------------------|-----------------0----------|
-----------3-----------1----|--------------0-----0-------|
--------3-----------2-------|-----------1-----------1----|
-----3-----------3----------|--------2-------------------|
--1-------------------------|-----2----------------------|
--------------1-------------|--0-------------------------|

----------------------------|
----------------------------|
-----1-----------------0----|
--2--------2--------2-------|
--------2--------0----------|
--------------0-------------|

--------------------------0-----------------------3-----------------------3-----|
--2-----------------------------------------------------------------------------|
--------------------------------------------------------------------------------|
--------------------------------------------------------------------------------|
--------------------------------------------------------------------------------|
--------------------------------------------------------------------------------|

------------------3-----------------------1--------3-----------1-----------0----|
--------------------------------------------------------------------------------|
--------------------------------------------------------------------------------|
--------------------------------------------------------------------------------|
--------------------------------------------------------------------------------|
--------------------------------------------------------------------------------|

-------1L----------------------1----|
------------------------------------|
------------------------------------|
------------------------------------|
------------------------------------|
------------------------------------|

--0-------------------------------------------------|
--------2-----------5-----------------6--5--6--5----|
--------------2L----2-------------------------------|
----------------------------------------------------|
----------------------------------------------------|
----------------------------------------------------|

----------------------------------------------------|-------|-------|
--6--5--6--5--6--5--6--5--6--5--6--5--6--5--6--5L---|--5----|-------|
----------------------------------------------------|-------|-------|
----------------------------------------------------|-------|-------|
----------------------------------------------------|-------|-------|
----------------------------------------------------|-------|-------|

-----13-12-13-10-13-12-13---|-----13-12-13-10-13-12-13---|
--10------------------------|--10------------------------|
----------------------------|----------------------------|
----------------------------|----------------------------|
----------------------------|----------------------------|
----------------------------|----------------------------|

-----13-12-13-10-13-12-13---|-----13-12-13-10-13-12-13---|
--11------------------------|--11------------------------|
----------------------------|----------------------------|
----------------------------|----------------------------|
----------------------------|----------------------------|
----------------------------|----------------------------|

-----15-13-15-12-15-13-15---|-----15-13-15-12-15-13-15---|
--12------------------------|--12------------------------|
----------------------------|----------------------------|
----------------------------|----------------------------|
----------------------------|----------------------------|
----------------------------|----------------------------|

-----15-12-15-13-15-12-15---|-----15-12-15-13-15-12-15---|
--13------------------------|--13------------------------|
----------------------------|----------------------------|
----------------------------|----------------------------|
----------------------------|----------------------------|
----------------------------|----------------------------|

-----17-15-17----17-15-17---|-----17-15-17----17-15-17---|
--14----------17------------|--14----------17------------|
----------------------------|----------------------------|
----------------------------|----------------------------|
----------------------------|----------------------------|
----------------------------|----------------------------|

-----17-13-17----17-13-17---|-----17-13-17----17-13-17---|
--15----------17------------|--15----------17------------|
----------------------------|----------------------------|
----------------------------|----------------------------|
----------------------------|----------------------------|
----------------------------|----------------------------|

-----18-17-18----17-15-17---|-----15-14-15----15-14-15---|
--15----------14------------|--13----------12------------|
----------------------------|----------------------------|
----------------------------|----------------------------|
----------------------------|----------------------------|
----------------------------|----------------------------|

-----13-12-13----13-12-13---|-----12-10-12----12-10-12---|
--11----------10------------|--9-----------x-------------|
----------------------------|----------------------------|
----------------------------|----------------------------|
----------------------------|----------------------------|
----------------------------|----------------------------|

-----8--7--8-----7-----7----|-----7-----7----------------|
--10----------9-----10------|--8-----10-------10-8--10---|
----------------------------|--------------7-------------|
----------------------------|----------------------------|
----------------------------|----------------------------|
----------------------------|----------------------------|

-----5-----5----------------|
--6-----8--------8--7--8----|
--------------5-------------|
----------------------------|
----------------------------|
----------------------------|

----------------------------------------------------|--10L--|--10~--|
--8-----7--6--5-------------------------------------|-------|-------|
----------------------------------------------------|-------|-------|
----------------------------------------------------|-------|-------|
----------------------------------------------------|-------|-------|
----------------------------------------------------|-------|-------|

----------------------------|----------------------------|
----------------------------|----------------------------|
----------------------------|----------------------------|
----------------------------|----------------------------|
----------------------------|----------------------------|
--5--0--5--0--3--5--0--5----|--0--5--3--0--3--0--3--5----|

----------------------------|----------------------------|
----------------------------|----------------------------|
----------------------------|----------------------------|
----------------------------|----------------------------|
----------------------------|----------------------------|
--5--0--5--0--3--5--0--5----|--0--5--3--0--3--0--3--5----|

----------------------------|----------------------------|
----------------------------|----------------------------|
----------------------------|----------------------------|
----------------------------|----------------------------|
----------------------------|----------------------------|
--5--0--5--0--3--5--0--5----|--0--5--3--0--3--0--3--5----|

--------5-----------5-------------------------------|
--------5-----------5-----------------------5-------|
--x-----------x-----------7-----5-----7-------------|
-----------------------------------7----------------|
----------------------------------------------------|
----------------------------------------------------|

--------------------------------------------------------------------------------|
--------------------------------------------------------------------------------|
--5-----------------------------------------------------------------------------|
--------------7-----------5-----------------------5-----7-----------------5--7L-|
--------------------------------------7-----------------------------------------|
--------------------------------------------------------------------------------|

--------------------|----------------------------|----------------------------|
--------------------|----------------------------|----------------------------|
--------------------|----------------------------|----------------------------|
---------------7----|----------------------------|----------------------------|
--------------------|----------------------------|----------------------------|
--------------------|--5--0--5--0--3--5--0--5----|--0--5--3--0--3--0--3--5----|

----------------------------|----------------------------|
----------------------------|----------------------------|
----------------------------|----------------------------|
----------------------------|----------------------------|
----------------------------|----------------------------|
--5--0--5--0--3--5--0--5----|--0--5--3--0--3--0--3--5----|

----------------------------|----------------------------|
----------------------------|----------------------------|
----------------------------|----------------------------|
----------------------------|----------------------------|
----------------------------|----------------------------|
--5--0--5--0--3--5--0--5----|--0--5--3--0--3--0--3--5----|

----------------------------|----------------------------|
----------------------------|----------------------------|
----------------------------|----------------------------|
----------------------------|----------------------------|
----------------------------|--------3-------------------|
--5--0--5--0--3-----0--5----|--0--5--------3--0--3--4----|

----------------------------|----------------------------|
----------------------------|----------------------------|
----------------------------|----------------------------|
----------------------------|----------------------------|
----------------------------|----------------------------|
--5--0--5--0--3--5--0--5----|--0--5--3--0--3--0--3--5----|

----------------------------|----------------------------|
----------------------------|----------------------------|
----------------------------|----------------------------|
----------------------------|----------------------------|
----------------------------|----------------------------|
--5--0--5--0--3--5--0--5----|--0--5--3--0--3--0--3--5----|

----------------------------|----------------------------|
----------------------------|----------------------------|
----------------------------|----------------------------|
----------------------------|----------------------------|
----------------------------|----------------------------|
--5--0--5--0--3--5--0--5----|--0--5--3--0--3--0--3--5----|

----------------------------|-------|----------------------------|
----------------------------|-------|--6-----------6--------6----|
-----------------------2L---|--2----|--7-----------7--------7----|
-----------------------2L---|--2----|--7-----------7--------7----|
-----------------------0L---|--0----|--5-----5--5--5-----5--5----|
--5--0--3--0--3--5--0-------|-------|----------------------------|

----------------------------|----------------------------|
----------------------------|----------------------------|
-----7--------7--7----------|--7-----------7--------7----|
-----7--------7--7----------|--8-----------8--------8----|
-----5--5-----5--5----------|--8-----------8--------8----|
-----------------------6----|--6-----6--6--6-----6--6----|

----------------------------|----------------------------|
----------------------------|----------------------------|
-----7--------7--7----------|----------------------------|
-----8--------8--8----------|--5-----------5--------5----|
-----8--------8--8----------|--5-----------5--------5----|
-----6--6-----6--6----------|--3-----3--3--3-----3--3----|

----------------------------|----------------------------|
----------------------------|----------------------------|
----------------------------|--5-----------5--------5----|
--------5-----5--5----------|--5-----------5--------5----|
--------5-----5--5----------|--3-----3--3--3-----3--3----|
--------3-----3--3-----3----|----------------------------|

----------------------------|----------------------------|
----------------------------|--6-----------6--------6----|
-----5--------5--5-----5----|--7-----------7--------7----|
-----5--------5--5-----5----|--7-----------7--------7----|
-----3-----3--3--3----------|--5-----5--5--5-----5--5----|
----------------------------|----------------------------|

----------------------------|----------------------------|
----------------------------|----------------------------|
-----7--------7--7----------|--7-----------7--------7----|
-----7--------7--7----------|--8-----------8--------8----|
-----5--5-----5--5----------|--8-----------8--------8----|
-----------------------6----|--6-----6--6--6-----6--6----|

----------------------------|----------------------------|
----------------------------|----------------------------|
-----7--------7--7----------|--5-----------5--------5----|
-----8--------8--8----------|--5-----------5--------5----|
-----8--------8--8----------|--3-----3--3--3-----3--3----|
-----6--6-----6--6----------|----------------------------|

----------------------------|
----------------------------|
-----5--------5--5-----5----|
-----5--------5--5-----5----|
-----3-----3--3--3----------|
----------------------------|

--------------------------------------------0L------|--0----|
----------------------------------------------------|-------|
--2-----------------------------------------2L------|--2----|
--2-----------------------------------------2L------|--2----|
--0-----------0-----0-----0-----1--0--------0L------|--0----|
--------------------------------------3-------------|-------|

----------------------------|----------------------------|
----------------------------|----------------------------|
----------------------------|----------------------------|
----------------------------|----------------------------|
----------------------------|----------------------------|
--5--0--5--0--3-----0--5----|--0--5--3-----5--0--3-------|

----------------------------|----------------------------|
----------------------------|----------------------------|
----------------------------|----------------------------|
----------------------------|----------------------------|
----------------------------|----------------------------|
--5--0--5--0--3--5--0--5----|--0--5--3--0--3--0--3--5----|

----------------------------|----------------------------|
-----------------------3L---|--3--2----------------------|
----------------------------|--------2-----0-------------|
----------------------------|-----------2-----2--0-------|
----------------------------|-----------------------4----|
--5--0--5--0--3--5--0-------|----------------------------|

----------------------------|----------------------------|
----------------------------|----------------------------|
----------------------------|----------------------------|
----------------------------|----------------------------|
----------------------------|----------------------------|
--5M-0M-5M-0M-3M-5M-0M-5M---|--0M-5M-3M-0M-3M-0M-3M-5M---|

----------------------------|----------------------------|
----------------------------|----------------------------|
----------------------------|----------------------------|
----------------------------|----------------------------|
----------------------------|----------------------------|
--5M-0M-5M-0M-3M-5M-0M-5M---|--0M-5M-3M-0M-3M-0M-3M-5M---|

----------------------------|----------------------------|
----------------------------|----------------------------|
----------------------------|----------------------------|
----------------------------|----------------------------|
----------------------------|----------------------------|
--5M-0M-5M-0M-3M-5M-0M-5M---|--0M-5M-3M-0M-3M-0M-3M-5M---|

----------------------------|----------------------------|
----------------------------|----------------------------|
----------------------------|----------------------------|
----------------------------|--5-----5-------------------|
-----6--5-----5-------------|-----7-----5b----3--5--3----|
--5--------------0--3--0----|----------------------------|

----------------------------|----------------------------|
----------------------------|----------------------------|
----------------------------|----------------------------|
----------------------------|----------------------------|
----------------------------|----------------------------|
--5M-0M-5M-0M-3M-5M-0M-5M---|--0M-5M-3M-0M-3M-0M-3M-5M---|

----------------------------|----------------------------|
----------------------------|----------------------------|
----------------------------|----------------------------|
----------------------------|----------------------------|
----------------------------|----------------------------|
--5M-0M-5M-0M-3M-5M-0M-5M---|--0M-5M-3M-0M-3M-0M-3M-5M---|

----------------------------|----------------------------|
----------------------------|----------------------------|
----------------------------|----------------------------|
----------------------------|----------------------------|
----------------------------|----------------------------|
--5M-0M-5M-0M-3M-5M-0M-5M---|--0M-5M-3M-0M-3M-0M-3M-5M---|

----------------------------|-------|----------------------------|
----------------------------|-------|--6-----------6--------6----|
-----------------------2L---|--2----|--7-----------7--------7----|
-----------------------2L---|--2----|--7-----------7--------7----|
-----------------------0L---|--0----|--5-----5--5--5-----5--5----|
--5M-0M-5M-0M-3M-5M-0-------|-------|----------------------------|

----------------------------|----------------------------|
-----6--------6--6----------|----------------------------|
-----7--------7--7----------|--7-----------7--------7----|
-----7--------7--7----------|--8-----------8--------8----|
-----5--5-----5--5----------|--8-----------8--------8----|
-----------------------6----|--6-----6--6--6-----6--6----|

----------------------------|----------------------------|
----------------------------|----------------------------|
-----7--------7--7----------|----------------------------|
-----8--------8--8----------|--5-----------5--------5----|
-----8--------8--8----------|--5-----------5--------5----|
-----6--6-----6--6----------|--3-----3--3--3-----3--3----|

----------------------------|----------------------------|
----------------------------|----------------------------|
----------------------------|--5-----------5--------5----|
--------5-----5--5----------|--5-----------5--------5----|
--------5-----5--5----------|--3-----3--3--3-----3--3----|
--------3-----3--3-----3----|----------------------------|

----------------------------|----------------------------|
----------------------------|--6-----------6--------6----|
-----5--------5--5-----5----|--7-----------7--------7----|
-----5--------5--5-----5----|--7-----------7--------7----|
-----3-----3--3--3----------|--5-----5--5--5-----5--5----|
----------------------------|----------------------------|

----------------------------|----------------------------|
----------------------------|----------------------------|
-----7--------7--7----------|--7-----------7--------7----|
-----7--------7--7----------|--8-----------8--------8----|
-----5--5-----5--5----------|--8-----------8--------8----|
-----------------------6----|--6-----6--6--6-----6--6----|

----------------------------|----------------------------|
----------------------------|----------------------------|
-----7--------7--7----------|--5-----------5--------5----|
-----8--------8--8----------|--5-----------5--------5----|
-----8--------8--8----------|--3-----3--3--3-----3--3----|
-----6--6-----6--6----------|----------------------------|

----------------------------|
----------------------------|
-----5--------5--5-----5----|
-----5--------5--5-----5----|
-----3-----3--3--3----------|
----------------------------|

--------------------------------------------0L------|--0----|
----------------------------------------------------|-------|
--2-----------------------------------------2L------|--2----|
--2-----------------------------------------2L------|--2----|
--0-----------0-----0-----0-----1--0--------0L------|--0----|
--------------------------------------3-------------|-------|

----------------------------|----------------------------|
----------------------------|----------------------------|
----------------------------|----------------------------|
-----5--------4--------3----|--------3-----2--3--2--0----|
--------5--------5----------|--5-------------------------|
--3--------3--------3-------|-----3-----3----------------|

----------------------------|----------------------------|
----------------------------|----------------------------|
----------------------------|----------------------------|
-----5--------4--------3----|--------3-----2--3--2--0----|
--------5--------5----------|--5-------------------------|
--3--------3--------3-------|-----3-----3----------------|

----------------------------|----------------------------|
----------------------------|----------------------------|
----------------------------|----------------------------|
-----5--------4--------3----|--------3-----2--3--2--0----|
--------5--------5----------|--5-------------------------|
--3--------3--------3-------|-----3-----3----------------|

----------------------------|----------------------------|
----------------------------|----------------------------|
--0--12-0--0--11-0--0--10---|--0M-0M-10-0--9--10-9--7----|
----------------------------|----------------------------|
----------------------------|----------------------------|
----------------------------|----------------------------|

-----13-12-13-10-13-12-13---|-----13-12-13-10-13-12-13---|
--10------------------------|--10------------------------|
----------------------------|----------------------------|
----------------------------|----------------------------|
----------------------------|----------------------------|
----------------------------|----------------------------|

-----13-12-13-10-13-12-13---|-----13-12-13-10-13-12-13---|
--11------------------------|--11------------------------|
----------------------------|----------------------------|
----------------------------|----------------------------|
----------------------------|----------------------------|
----------------------------|----------------------------|

-----15-13-15-12-15-13-15---|-----15-13-15-12-15-13-15---|
--12------------------------|--12------------------------|
----------------------------|----------------------------|
----------------------------|----------------------------|
----------------------------|----------------------------|
----------------------------|----------------------------|

-----15-12-15-13-15-12-15---|-----15-12-15-13-15-12-15---|
--13------------------------|--13------------------------|
----------------------------|----------------------------|
----------------------------|----------------------------|
----------------------------|----------------------------|
----------------------------|----------------------------|

-----17-15-17----17-15-17---|-----17-15-17----17-15-17---|
--14----------17------------|--14----------17------------|
----------------------------|----------------------------|
----------------------------|----------------------------|
----------------------------|----------------------------|
----------------------------|----------------------------|

-----17-13-17----17-13-17---|-----17-13-17----17-13-17---|
--15----------17------------|--15----------17------------|
----------------------------|----------------------------|
----------------------------|----------------------------|
----------------------------|----------------------------|
----------------------------|----------------------------|

-----18-17-18----17-15-17---|-----15-14-15----15-14-15---|
--15----------14------------|--13----------12------------|
----------------------------|----------------------------|
----------------------------|----------------------------|
----------------------------|----------------------------|
----------------------------|----------------------------|

-----13-12-13----13-12-13---|-----12-10-12-12-12-10-12---|
--11----------10------------|--9-------------------------|
----------------------------|----------------------------|
----------------------------|----------------------------|
----------------------------|----------------------------|
----------------------------|----------------------------|

--12L---------------------------------12~------10---|
--------------------------------------------10------|
----------------------------------------------------|
----------------------------------------------------|
----------------------------------------------------|
----------------------------------------------------|

--------------------------------------10------------|
--13b------------------------------------13-10-13L--|
----------------------------------------------------|
----------------------------------------------------|
----------------------------------------------------|
----------------------------------------------------|

----------------------------------------------------|
--13L---------------------13~------15-13----16L-----|
-----------------------------------------14---------|
----------------------------------------------------|
----------------------------------------------------|
----------------------------------------------------|

----------------------------------------------------|
--16~---------------------------------17b---15-16L--|
----------------------------------------------------|
----------------------------------------------------|
----------------------------------------------------|
----------------------------------------------------|

----------------------------|--15L---------15~15b--------|
--16~---------------15------|----------------------------|
-----------------------14---|----------------------------|
----------------------------|----------------------------|
----------------------------|----------------------------|
----------------------------|----------------------------|

--15~---------------------------------------------------------------------13----|
--------------------------------------------------------------------------------|
--------------------------------------------------------------------------------|
--------------------------------------------------------------------------------|
--------------------------------------------------------------------------------|
--------------------------------------------------------------------------------|

---------------------15----------13----------12---------------------|
--------------------------------------------------------------------|
--------------------------------------------------------------------|
--------------------------------------------------------------------|
--------------------------------------------------------------------|
--------------------------------------------------------------------|

--13----------12-13-12-12L---------------12b--------|
----------------------------------------------------|
----------------------------------------------------|
----------------------------------------------------|
----------------------------------------------------|
----------------------------------------------------|

----------------------------------------------------|
--13----13~---------------------------------10s13---|
-----12---------------------------------------------|
----------------------------------------------------|
----------------------------------------------------|
----------------------------------------------------|

-----------------------12---|--12L12b12b11L--|
--14L---------14-14-15------|----------------|
----------------------------|----------------|
----------------------------|----------------|
----------------------------|----------------|
----------------------------|----------------|

--11b---------12----------10----------12----------13----12----10----------13----|
--------------------------------------------------------------------------------|
--------------------------------------------------------------------------------|
--------------------------------------------------------------------------------|
--------------------------------------------------------------------------------|
--------------------------------------------------------------------------------|

------10-12-10------|
---------------13---|
--------------------|
--------------------|
--------------------|
--------------------|

-----------10---------------------------------------------------------------|
--13----------------13b---------------------------------------17----18------|
--------------------------------------------------------19------------------|
----------------------------------------------------------------------------|
----------------------------------------------------------------------------|
----------------------------------------------------------------------------|

-----------17-18-17---------------------|
--17-18-20----------20-18-17----17-18---|
-----------------------------19---------|
----------------------------------------|
----------------------------------------|
----------------------------------------|

--------------------------17----------------------18-------17-------------------|
--20----------------------------------------------------------------20-------18-|
--------------------------------------------------------------------------------|
--------------------------------------------------------------------------------|
--------------------------------------------------------------------------------|
--------------------------------------------------------------------------------|

--------------------------------------------------------------------------------|
------17-------------------------------17----------------------18---------------|
---------------19---------------------------------------------------------------|
--------------------------------------------------------------------------------|
--------------------------------------------------------------------------------|
--------------------------------------------------------------------------------|

-------------------------------17----------------------18L----------------------|
-------20-----------------------------------------------------------------------|
--------------------------------------------------------------------------------|
--------------------------------------------------------------------------------|
--------------------------------------------------------------------------------|
--------------------------------------------------------------------------------|

-----------------------------------------------18b--|
----------------------------------------------------|
----------------------------------------------------|
----------------------------------------------------|
----------------------------------------------------|
----------------------------------------------------|

--18----------17----------------------18----------17----18----17----------------|
--------------------------20----------------------------------------20----------|
--------------------------------------------------------------------------------|
--------------------------------------------------------------------------------|
--------------------------------------------------------------------------------|
--------------------------------------------------------------------------------|

------17------------------------------------------------------------|-------|
20----------20----18----------18-------17---------------------------|-------|
------------------------------------------------19-------19L--------|--19~--|
--------------------------------------------------------------------|-------|
--------------------------------------------------------------------|-------|
--------------------------------------------------------------------|-------|

--15-17-15----15------------|
-----------18----18-17-15---|
----------------------------|
----------------------------|
----------------------------|
----------------------------|

--12-13-12-10-12----10----------------10------------|
--------------------------13----11----------13------|
----------------------------------------------------|
----------------------------------------------------|
----------------------------------------------------|
----------------------------------------------------|

----------------------------------------------------|----------|
--11-13-11----10----11----10-11-10----8-------------|----------|
--------------------------------------------10------|--9--9s---|
----------------------------------------------------|----------|
----------------------------------------------------|----------|
----------------------------------------------------|----------|

-----------------------------------------15L--------|
--15b---------------------15----13------------------|
----------------------------------------------------|
----------------------------------------------------|
----------------------------------------------------|
----------------------------------------------------|

--15b---------------------------18L-----------------|--18~--|--18L18L--|--18~--|
--------------------------17------------------------|-------|----------|-------|
-----------------------------19---------------------|-------|----------|-------|
----------------------------------------------------|-------|----------|-------|
----------------------------------------------------|-------|----------|-------|
----------------------------------------------------|-------|----------|-------|

----------------------------|----------------------------|
----------------------------|----------------------------|
--7-----------7--------7----|-----7--------7--7----------|
--8-----------8--------8----|-----8--------8--8----------|
--8-----------8--------8----|-----8--------8--8----------|
--6-----6--6--6-----6--6----|-----6--6-----6--6----------|

----------------------------|----------------------------|
----------------------------|----------------------------|
----------------------------|----------------------------|
--5-----------5--------5----|--------5-----5--5----------|
--5-----------5--------5----|--------5-----5--5----------|
--3-----3--3--3-----3--3----|--------3-----3--3-----3----|

--------------0-----1--0----|--------0-------------------|
----------------------------|--3--1-----3--1-----1-------|
----------------------------|-----------------2-----2----|
--------0--2----------------|----------------------------|
--3-------------------------|----------------------------|
----------------------------|----------------------------|

----------------------------|----------------------------|
--6-----------6--------6----|----------------------------|
--7-----------7--------7----|-----7--------7--7----------|
--7-----------7--------7----|-----7--------7--7----------|
--5-----5--5--5-----5--5----|-----5--5-----5--5----------|
----------------------------|-----------------------6----|

----------------------------|----------------------------|
----------------------------|----------------------------|
--7-----------7--------7----|-----7--------7--7----------|
--8-----------8--------8----|-----8--------8--8----------|
--8-----------8--------8----|-----8--------8--8----------|
--6-----6--6--6-----6--6----|-----6--6-----6--6----------|

----------------------------|----------------------------|
----------------------------|----------------------------|
----------------------------|----------------------------|
--5-----------5--------5----|--------5-----5--5----------|
--5-----------5--------5----|--------5-----5--5----------|
--3-----3--3--3-----3--3----|--------3-----3--3-----3----|

----------------------------|----------------------------|
--------------5--------5----|--5--5b-------5-------------|
-----------5--------5-------|-----------5-----5----------|
--------5s------------------|-----------------------5----|
--3-------------------------|----------------------------|
----------------------------|----------------------------|

----------------------------|----------------------------|
--6-----------6--------6----|----------------------------|
--7-----------7--------7----|--------9--------10---------|
--7-----------7--------7----|----------------------------|
--5-----5--5--5-----5--5----|--------7--------8----------|
----------------------------|----------------------------|

----------------------------|----------------------------|
----------------------------|----------------------------|
--7-----------7--------7----|--------9--------10---------|
--8-----------8--------8----|----------------------------|
--8-----------8--------8----|--------7--------8----------|
--6-----6--6--6-----6--6----|----------------------------|

----------------------------|----------------------------|
----------------------------|----------------------------|
----------------------------|--------10-------9----------|
--5-----------5--------5----|----------------------------|
--5-----------5--------5----|--------8--------7----------|
--3-----3--3--3-----3--3----|----------------------------|

----------------------------|----------------------------|
----------------------------|----------------------------|
--5-----------5--------5----|--------9--------10---------|
--5-----------5--------5----|----------------------------|
--3-----3--3--3-----3--3----|--------7--------8----------|
----------------------------|----------------------------|

----------------------------|----------------------------|
--6-----------6--------6----|----------------------------|
--7-----------7--------7----|--------9--------10---------|
--7-----------7--------7----|----------------------------|
--5-----5--5--5-----5--5----|--------7--------8----------|
----------------------------|----------------------------|

----------------------------|----------------------------|
----------------------------|----------------------------|
--7-----------7--------7----|--------10-------9----------|
--8-----------8--------8----|----------------------------|
--8-----------8--------8----|--------8--------7----------|
--6-----6--6--6-----6--6----|----------------------------|

----------------------------|----------------------------|
----------------------------|----------------------------|
--5-----------5--------5----|--------9--------7----------|
--5-----------5--------5----|----------------------------|
--3-----3--3--3-----3--3----|--------7--------5----------|
----------------------------|----------------------------|

----------------------------|-------|-------|----------------------------|
----------------------------|-------|-------|----------------------------|
--6--------7--------9-------|--14---|-------|----------------------------|
----------------------------|-------|-------|----------------------------|
--4--------5--------7-------|--12---|-------|----------------------------|
----------------------------|-------|-------|-----2L----------------2b---|

-------|-------|-------|-------|-------|-------|----------------------------|
-------|-------|-------|-------|-------|-------|----------------------------|
--6L---|--6----|-------|-------|-------|-------|----------------------------|
--7L---|--7L---|--7----|-------|-------|-------|-----------7----------------|
--7L---|--7L---|--7L---|--7----|-------|-------|--7--8--10----8--10-8--7----|
--5L---|--5L---|--5L---|--5L---|--5----|-------|----------------------------|

----------------------------------------------------|
----------------------------------------------------|
----------------------------------------------------|
--5-------------------------------------------------|
--------8-----7--8--7--5--7-----5-----4-------------|
--------------------------------------------5-------|

----------------------------|----------------------------|
----------------------------|----------------------------|
----------------------------|----------------------------|
--------5-------------------|-----------------------5----|
--5--4-----4--5--7--5--4----|--5--4--7--4--5--7--8-------|
----------------------------|----------------------------|

----------------------------|
----------------------------|
----------------------------|
--------5--------5----------|
--8--7-----8--7-----7--8----|
----------------------------|

----------------------------------------------------|
----------------------------------------------------|
----------------------------------------------------|
--5-----------5-----------7-----------5-----7-------|
--------7--8--------8-----------8-------------------|
----------------------------------------------------|

----------------------------------------------------|
----------------------------------------------------|
----------------------------------------------------|
--8.----7--8--7--5-----7.----5--7--5--------5.------|
--------------------8-----------------8--7----------|
----------------------------------------------------|

--------------------------------------------------------------------------------|
--------------------------------------------------------------------------------|
--------------------------------------------------------------------------------|
--------------------------------------------------------------------------------|
--8--------10-------8--------7--------7-----------------5-----------------7-----|
--------------------------------------------------------------------------------|

--------------------------------------------------------------------|
--------------------------------------------------------------------|
--------------------------------------------------------------------|
--------------------------------------------------------------------|
------------8-----------------5-----------7-----------5-------------|
--------------------------------------------------------------------|

----------------------------|-------|-------|----------------------------|
----------------------------|-------|-------|----------------------------|
----------------------------|-------|--6L---|--6~----------6--7--9-------|
----------------------------|-------|-------|--------7-------------------|
--4~----------------4--7----|-------|-------|----------------------------|
----------------------------|--5~---|-------|----------------------------|

----------------------------|----------------------------|
----------------------------|----------------------------|
--9-----9-----7--7--7--7L---|--7L----------7--6--7--9----|
----------------------------|----------------------------|
----------------------------|----------------------------|
----------------------------|----------------------------|

----------------------------|----------------------|
----------------------------|----------------------|
--10----------------9--10---|--12-------10-9--10---|
----------------------------|----------------------|
----------------------------|----------------------|
----------------------------|----------------------|

----------------------------------------------------|
----------------------------------------------------|
--9-----10-9--7-----9-----7-----9-----7-----7L------|
----------------------------------------------------|
----------------------------------------------------|
----------------------------------------------------|

----------------------------|----------------------------|
----------------------------|--10----10L-----------------|
--7b----------------7--9----|-----9----------------------|
----------------------------|----------------------------|
----------------------------|----------------------------|
----------------------------|----------------------------|

----------------------------|----------------------------|
--10-------------10L--------|--10b---------------10-10L--|
--------------9-------------|----------------------------|
----------------------------|----------------------------|
----------------------------|----------------------------|
----------------------------|----------------------------|

----------------------------|
--10----------------10-11---|
----------------------------|
----------------------------|
----------------------------|
----------------------------|

----------------------------------------------------|
--11b---------11----------10----11-------10L--------|
----------------------------------------------------|
----------------------------------------------------|
----------------------------------------------------|
----------------------------------------------------|

--------------------------------------------------------------------------------|
--10-------11----10----8-----------11----------10----------11----10----8--------|
--------------------------------------------------------------------------------|
--------------------------------------------------------------------------------|
--------------------------------------------------------------------------------|
--------------------------------------------------------------------------------|

--------------------|----------------------------|----------------------------|
---10L---------10---|--------10-------10---------|----------------------------|
--------------------|--9--------7--------6L------|--6-----6s------------------|
--------------------|----------------------------|----------------------------|
--------------------|----------------------------|----------------------------|
--------------------|----------------------------|----------------------------|

-------|----------------------------|----------------------------|
--15b--|--15b---15b---15-14-15-15L--|--15----17~------18L--------|
-------|----------------------------|----------------------------|
-------|----------------------------|----------------------------|
-------|----------------------------|----------------------------|
-------|----------------------------|----------------------------|

----------------|----------------------------|
--18~------18b--|--18b------18b------18b-----|
----------------|----------------------------|
----------------|----------------------------|
----------------|----------------------------|
----------------|----------------------------|

----------------------------------------------------|
--18.---17.---18.---17-18-17-15-18----17-18-17-15---|
----------------------------------------------------|
----------------------------------------------------|
----------------------------------------------------|
----------------------------------------------------|

--------------------------------------------------------------------------------|
--17.---------15----17----15----17.------15----17-15-14----15----14----15----15-|
--------------------------------------------------------------------------------|
--------------------------------------------------------------------------------|
--------------------------------------------------------------------------------|
--------------------------------------------------------------------------------|

--------------------|-------|--15L---------------15b15L--|
---14---------------|-------|----------------------------|
---------14L--------|--14---|----------------------------|
--------------------|-------|----------------------------|
--------------------|-------|----------------------------|
--------------------|-------|----------------------------|

--15b---15----13----13-15-13-12-15-13-15----13-12---|
----------------------------------------------------|
----------------------------------------------------|
----------------------------------------------------|
----------------------------------------------------|
----------------------------------------------------|

--15----13-15-13-12-13-15----13-15-13-12-13-15------|
----------------------------------------------------|
----------------------------------------------------|
----------------------------------------------------|
----------------------------------------------------|
----------------------------------------------------|

--15----13-15-13-12-13-15----13-15-13-12-13-15------|
----------------------------------------------------|
----------------------------------------------------|
----------------------------------------------------|
----------------------------------------------------|
----------------------------------------------------|

--15-13-15-13----17-15-17-15-15-13-15-13-15-13-15---|
----------------------------------------------------|
----------------------------------------------------|
----------------------------------------------------|
----------------------------------------------------|
----------------------------------------------------|

--15-12-13-12-15-12-13-12-12-13-12-10-12-10-9L------|
----------------------------------------------------|
----------------------------------------------------|
----------------------------------------------------|
----------------------------------------------------|
----------------------------------------------------|

--9-------------------------|-------|--18L---------------18b18L--|
--------------------14-15---|--17~--|----------------------------|
-----------------14---------|-------|----------------------------|
----------------------------|-------|----------------------------|
----------------------------|-------|----------------------------|
----------------------------|-------|----------------------------|

--18b---------19b------17---|--20L---------------20b20L--|
----------------------------|----------------------------|
----------------------------|----------------------------|
----------------------------|----------------------------|
----------------------------|----------------------------|
----------------------------|----------------------------|

--20b---20b------20b--------|--22b------22b--|--22b------22L--|
----------------------------|----------------|----------------|
----------------------------|----------------|----------------|
----------------------------|----------------|----------------|
----------------------------|----------------|----------------|
----------------------------|----------------|----------------|

--22L---------------22b22-22-22-22-22-22-22-22-22---|
----------------------------------------------------|
----------------------------------------------------|
----------------------------------------------------|
----------------------------------------------------|
----------------------------------------------------|

--21-21-21-21-21-21-21-21-22-22-22-22-21-21-21-21---|
----------------------------------------------------|
----------------------------------------------------|
----------------------------------------------------|
----------------------------------------------------|
----------------------------------------------------|

--21-21-21-21-18-18-18-21-21-18-18-17-17-18-18-17---|
----------------------------------------------------|
----------------------------------------------------|
----------------------------------------------------|
----------------------------------------------------|
----------------------------------------------------|

--17-17-17-18-18-18-17-17-17-15-15-15-17-17-15-15---|
----------------------------------------------------|
----------------------------------------------------|
----------------------------------------------------|
----------------------------------------------------|
----------------------------------------------------|

--13-13-13-15-15-15-13-13-13-13-13-15-15-15-13-13---|
----------------------------------------------------|
----------------------------------------------------|
----------------------------------------------------|
----------------------------------------------------|
----------------------------------------------------|

--13-12-12-12-10-10-10-12-12-10-9--9--9--9--10-10---|
----------------------------------------------------|
----------------------------------------------------|
----------------------------------------------------|
----------------------------------------------------|
----------------------------------------------------|

--13-13-13-15-15-13-13-12-12-13-13-12-12-10-10-10---|
----------------------------------------------------|
----------------------------------------------------|
----------------------------------------------------|
----------------------------------------------------|
----------------------------------------------------|

--12-12-12-10-10-10-9--9--9--9--9--10-10-9--9--9----|
----------------------------------------------------|
----------------------------------------------------|
----------------------------------------------------|
----------------------------------------------------|
----------------------------------------------------|

--10-10-9--9--10-10-9--9--6--6--6--8--8--6--6--5----|
----------------------------------------------------|
----------------------------------------------------|
----------------------------------------------------|
----------------------------------------------------|
----------------------------------------------------|

--5--6--6--5--5-------------------------------------|
----------------------------------------------------|
----------------------------------------------------|
----------------------------------------------------|
----------------------------------------------------|
----------------------------------------------------|

----------------------------|----------------------------|
----------------------------|-----------------------5----|
--7--6-----7--6-----7--6----|-----7--6-----7--6----------|
--------7--------7----------|--7--------7--------7-------|
----------------------------|----------------------------|
----------------------------|----------------------------|

----------------------------|
-----------------5----------|
--6-----7--6--------6-------|
-----7--------7--------7----|
----------------------------|
----------------------------|

-----------------------------------------5----------|
--------------------------------5--6--8-----8--6----|
--7-----------------------6--7----------------------|
----------------------------------------------------|
----------------------------------------------------|
----------------------------------------------------|

-----------------------5----------------------------|
--5-----------5--6--8-----8--6--5-----------5--6----|
-----7--6--7-----------------------7--6--7----------|
----------------------------------------------------|
----------------------------------------------------|
----------------------------------------------------|

--5-----5L----------------------5~------------------|
-----8--------------------------------10-8----------|
--------------------------------------------9-------|
----------------------------------------------------|
----------------------------------------------------|
----------------------------------------------------|

----------------------------|----------------------------|
--13b---------13b---13b10---|--13b13L---------------13b--|
----------------------------|----------------------------|
----------------------------|----------------------------|
----------------------------|----------------------------|
----------------------------|----------------------------|

----------------------------|----------------------------|
----------------------------|----------------------------|
----------------------------|----------------------------|
----------------------------|----------------------------|
----------------------------|----------------------------|
--5--0--5--0--3-----0--5----|--0--5--3-----5--0--3-------|

----------------------------|----------------------------|
----------------------------|----------------------------|
----------------------------|----------------------------|
----------------------------|----------------------------|
----------------------------|----------------------------|
--5--0--5--0--3-----0--5----|--0--5--3-----5--0--3-------|

----------------------------|----------------------------|
----------------------------|----------------------------|
----------------------------|----------------------------|
----------------------------|----------------------------|
----------------------------|--------4--------5----------|
--5--0--5--0--3-----0--5----|--0--5----------------------|

----------------------------|----------------------------|-------|-------|
----------------------------|----------------------------|-------|-------|
----------------------------|----------------------------|-------|-------|
----------------------------|----------------------------|-------|-------|
--5--4--5--4--5--4----------|----------------------------|--0L---|--0L---|
--------------------5--5L---|--5-----5--0--3--5--5--0----|-------|-------|

-------|-------|-------|-------|-------|-------|-------|-------|-------|-------|
-------|-------|-------|-------|-------|-------|-------|-------|-------|-------|
-------|-------|-------|-------|-------|-------|-------|-------|-------|-------|
-------|-------|-------|-------|-------|-------|-------|-------|-------|-------|
--0L---|--0L---|--0L---|--0L---|--0L---|--0L---|--0L---|--0L---|--0L---|--0L---|
-------|-------|-------|-------|-------|-------|-------|-------|-------|-------|

-------|-------|-------|----------|-------||
-------|-------|-------|----------|-------||
-------|-------|-------|----------|-------||
-------|-------|-------|----------|-------||
--0L---|--0L---|--0L---|--0L-0L---|--0----||
-------|-------|-------|----------|-------||