Slash's Snakepit - Speed Parade Chords

Main Riff
Breakdown W/Car Noises Riff
Interlude Riff
 
No chord
    
Standard guitar tuning:
E
A
D
G
B
E
No capo
e|------------------------------------------------------|
B|------------------------------------------------------|
G|------------------------------------------------------|
D|-8---10---8---10---11---8---11---10---11---10---9---8-|
A|-6---8----6---8----9----6---9----8----9----8----7---6-|x3
E|------------------------------------------------------|
e|-----------------|------------------------------------|
B|-----------------|------------------------------------|
G|-----------------|------------------------------------|
D|-8\\---8--8\\----|------------------------------------|
A|-6\\---6--6\\----|------------------------------------|
E|-----------------|------------------------------------|
e|----------|--------------------------------------------|
B|----------|--------------------------------------------|
G|----------|--------------------------------------------|
D|--4--3--2-|-1--3--1--3--4----1--4--3----4--3--2--1-----|
A|--4--3--2-|-1--3--1--3--4----1--4--3----4--3--2--1-----|x4
E|----------|--------------------------------------------|
CHITARRA 1
e|----------------|---------|------------------|
B|----------------|---------|------------------|
G|----------------|---------|------------------|
D|-4--6--4--6--8--|-4--8--7-|-8--7--6--4-------|x4
A|----------------|---------|------------------|
E|----------------|---------|------------------|
CHITARRA 2
e|----------------|---------|----------------|
B|----------------|---------|----------------|
G|----------------|---------|----------------|
D|-1--3--1--3--4--|-1--4--3-|-4--3--2--1-----|x4
A|----------------|---------|----------------|
E|----------------|---------|----------------|
e|----------|--------------------------------------------|
B|----------|--------------------------------------------|
G|----------|--------------------------------------------|
D|--4--3--2-|-1--3--1--3--4----1--4--3----4--3--2--1-----|
A|--4--3--2-|-1--3--1--3--4----1--4--3----4--3--2--1-----|
E|----------|--------------------------------------------|
e|----------|--------------------------------------------|
B|----------|--------------------------------------------|
G|----------|--------------------------------------------|
D|--4--3--2-|-1--3--1--3--4----1--4--3----4--3--2--------|
A|--4--3--2-|-1--3--1--3--4----1--4--3----4--3--2--------|x4
E|----------|--------------------------------------------|
CHITARRA 1
e|----------------|---------|------------------|
B|----------------|---------|------------------|
G|----------------|---------|------------------|
D|-4--6--4--6--8--|-4--8--7-|-8--7--6--4-------|x4
A|----------------|---------|------------------|
E|----------------|---------|------------------|
CHITARRA 2
e|----------------|---------|----------------|
B|----------------|---------|----------------|
G|----------------|---------|----------------|
D|-1--3--1--3--4--|-1--4--3-|-4--3--2--1-----|x4
A|----------------|---------|----------------|
E|----------------|---------|----------------|
Variazione:
e|----------|-----------------------------------------------|
B|----------|-----------------------------------------------|
G|--4--3--2-|-1--3--1--3--4----1--4--3----4--3--2--1--------|
D|--4--3--2-|-1--3--1--3--4----1--4--3----4--3--2--1--------|
A|----------|-----------------------------------------------|
E|----------|-----------------------------------------------|
e|----------|---------------------------|----------|--------------------------------|
B|----------|---------------------------|----------|--------------------------------|
G|----------|-1--3--1--3--4----1--4--3--|--6--5--4-|-3--5--3--5--6----3--6--5-------|
D|----------|-1--3--1--3--4----1--4--3--|--6--5--4-|-3--5--3--5--6----3--6--5-------|
A|----------|---------------------------|----------|--------------------------------|
E|----------|---------------------------|----------|--------------------------------|
e|----------|------------------|----------------------------------|
B|----------|------------------|----------------------------------|
G|--6--5--3-|-4--6--4--6--7--8-|-6--6--8--6--8--9--10--1-----------|
D|--6--5--3-|-4--6--4--6--7--8-|-6--6--8--6--8--9--10--1-----------|
A|----------|------------------|----------------------------------|
E|----------|------------------|----------------------------------|
e|---|--------------------------------------------|
B|---|--------------------------------------------|
G|---|--------------------------------------------|
D|-- |-1--3--1--3--4----1--4--3----4--3--2--1-----|
A|---|-1--3--1--3--4----1--4--3----4--3--2--1-----|x4
E|---|--------------------------------------------|
CHITARRA 1
e|----------------|---------|------------------|
B|----------------|---------|------------------|
G|----------------|---------|------------------|
D|-4--6--4--6--8--|-4--8--7-|-8--7--6--4-------|x4
A|----------------|---------|------------------|
E|----------------|---------|------------------|
CHITARRA 2
e|----------------|---------|----------------|
B|----------------|---------|----------------|
G|----------------|---------|----------------|
D|-1--3--1--3--4--|-1--4--3-|-4--3--2--1-----|x4
A|----------------|---------|----------------|
E|----------------|---------|----------------|
Variazione:
e|----------|-----------------------------------------------|
B|----------|-----------------------------------------------|
G|--4--3--2-|-1--3--1--3--4----1--4--3----4--3--2--1--------|
D|--4--3--2-|-1--3--1--3--4----1--4--3----4--3--2--1--------|
A|----------|-----------------------------------------------|
E|----------|-----------------------------------------------|
e|----------|---------------------------|----------|--------------------------------|
B|----------|---------------------------|----------|--------------------------------|
G|----------|-1--3--1--3--4----1--4--3--|--6--5--4-|-3--5--3--5--6----3--6--5-------|
D|----------|-1--3--1--3--4----1--4--3--|--6--5--4-|-3--5--3--5--6----3--6--5-------|
A|----------|---------------------------|----------|--------------------------------|
E|----------|---------------------------|----------|--------------------------------|
e|----------|------------------|----------------------------------|
B|----------|------------------|----------------------------------|
G|--6--5--3-|-4--6--4--6--7--8-|-6--6--8--6--8--9--10--1-----------|
D|--6--5--3-|-4--6--4--6--7--8-|-6--6--8--6--8--9--10--1-----------|
A|----------|------------------|----------------------------------|
E|----------|------------------|----------------------------------|
e|---|--------------------------------------------|
B|---|--------------------------------------------|
G|---|--------------------------------------------|
D|-- |-1--3--1--3--4----1--4--3----4--3--2--1-----|
A|---|-1--3--1--3--4----1--4--3----4--3--2--1-----|x3
E|---|--------------------------------------------|
e|---|--------------------------------------------|
B|---|--------------------------------------------|
G|---|--------------------------------------------|
D|-- |-1--3--1--3--4----1-------------------------|
A|---|-1--3--1--3--4----1-------------------------|
E|---|--------------------------------------------|

Intro solo

dopo Rullata)
e|-------------|-----------------------------|
B|-------------|-----------------------------|
G|-------------|-2---------------------------|
D|--7--6--5--4-|-2--2--3--4------------------|
A|--7--6--5--4-|----2--3--4------------------|x2
E|-------------|-----------------------------|
e|-------------|-----------------------------|
B|-------------|-----------------------------|
G|-------------|-4---------------------------|
D|--9--8--7--6-|-4--4--5--6------------------|
A|--9--8--7--6-|----4--5--6------------------|x1
E|-------------|-----------------------------|
e|-------------|------------|----------------|
B|-------------|------------|----------------|
G|-------------|-2----------|----------------|
D|--7--6--5--4-|-2--2--3--4-|-7--6--5--4-----|
A|--7--6--5--4-|----2--3--4-|-7--6--5--4-----|x1
E|-------------|------------|----------------|

Accompagnamento assolo

e|----|---|---|---|------------------------------|
B|----|---|---|---|------------------------------|
G|----|---|---|-2-|-3--4--5--6-7-8-9-10-11-12----|
D|--4-|-5-|-6-|-2-|-3--4--5--6-7-8-9-10-11-12----|
A|--4-|-5-|-6-|---|------------------------------|
E|----|---|---|---|------------------------------|
INTERMEZZO
e|---|---------------|---|---------------|---|------------------------|
B|---|---------------|---|---------------|---|------------------------|
G|-1-|-4--4--3--2--1-|-1-|---------------|---|------------------------|
D|-1-|-4--4--3--2--1-|-1-|-4--4--3--2--1-|-1-|-4--4--3--2--1----------|
A|---|---------------|---|-4--4--3--2--1-|-1-|-4--4--3--2--1----------|X2
E|---|---------------|---|---------------|---|------------------------|

All Content on this page is the property of the copyright owner of the original composition.