Slipknot - Psychosocial Text Guitar Tab

Learn the song with the online tablature player
                                  PSYCHOSOCIAL
                             As recorded by Slipknot
                     (From the 2008 Album ALL HOPE IS GONE)

Words by Corey Taylor

Gtr I (A E A D F# B) - 'Mick'
Gtr II (A E A D F# B) - 'Jim'
Gtr III (A E A D F# B) - 'Extras'

 Intro
  Q=135
 4/4
  Gtr I
    PM----|         PM    PM----------------|         PM
  E E S S S  S  +E  E S S S S   S S S S S S S  S  +E  E S S E
|-----------------------------|-------------------------------|
|-----------------------------|-------------------------------|
|-----------------------------|-------------------------------|
|-----------------------------|-------------------------------|
|-----------[6]-(6)-----------|---------------[6]-(6)---------|
|-0-0-3-0-0---------0-3h5-0-0-|-0-0-0-0-3-0-0---------0-3h5---|
|
| Gtr II
| PM                                                  PM
| E E Q          H              H                  E  E S S E
|-----------------------------|-------------------------------|
|-----------------------------|-------------------------------|
|-----------------------------|-------------------------------|
|-----------------------------|-------------------------------|
|-0---------------------------|-------------------------------|
|-0---------------------------|-----------------------0-3h5---|

    PM----|         PM    PM|
  E E S S S  S  +E  E S S S S
|------------------------------|
|------------------------------|
|------------------------------|
|------------------------------|
|-----------[6]-(6)------------|
|---0-3-0-0---------0-3h5-0-0--|
|
|   PM----|         PM    PM|
| E E S S S  S  +E  E S S S S
|------------------------------|
|------------------------------|
|------------------------------|
|------------------------------|
|-----------[6]-(6)------------|
|---0-3-0-0---------0-3h5-0-0--|

  PM----------------------------------------|         PM    PM|
  S S S S S S S S S S S S S S S S   E E S S S  S  +E  E S S S S
|---------------------------------|-----------------------------|
|---------------------------------|-----------------------------|
|---------------------------------|-----------------------------|
|---------------------------------|-----------------------------|
|---------------------------------|-----------[6]-(6)-----------|
|-5-5-5-5-6-6-6-6-8-8-8-8-7-7-7-7-|-0-0-3-0-0---------0-3h5-0-0-|
|
| PM----------------------------------------|         PM    PM|
| S S S S S S S S S S S S S S S S   E E S S S  S  +E  E S S S S
|---------------------------------|-----------------------------|
|---------------------------------|-----------------------------|
|---------------------------------|-----------------------------|
|---------------------------------|-----------------------------|
|-5-5-5-5-6-6-6-6-9-9-9-9-8-8-8-8-|-----------[6]-(6)-----------|
|---------------------------------|-0-0-3-0-0---------0-3h5-0-0-|

  PM----------|         PM          PM----|         PM    PM|
  S S S S S S S  S  +E  E S S E   E E S S S  S  +E  E S S S S
|-------------------------------|-----------------------------|
|-------------------------------|-----------------------------|
|-------------------------------|-----------------------------|
|-------------------------------|-----------------------------|
|---------------[6]-(6)---------|-----------[6]-(6)-----------|
|-0-0-0-0-3-0-0---------0-3h5---|---0-3-0-0---------0-3h5-0-0-|
|
| PM----------|         PM          PM----|         PM    PM|
| S S S S S S S  S  +E  E S S E   E E S S S  S  +E  E S S S S
|-------------------------------|-----------------------------|
|-------------------------------|-----------------------------|
|-------------------------------|-----------------------------|
|-------------------------------|-----------------------------|
|---------------[6]-(6)---------|-----------[6]-(6)-----------|
|-0-0-0-0-3-0-0---------0-3h5---|---0-3-0-0---------0-3h5-0-0-|

  PM--------------------------------------------------------------|
  S S S S S S S S S S S S S S S S   S S S S S S S S S S S S S S S S
|---------------------------------|---------------------------------|
|---------------------------------|---------------------------------|
|---------------------------------|---------------------------------|
|---------------------------------|---------------------------------|
|---------------------------------|---------------------------------|
|-5-5-5-5-6-6-6-6-8-8-8-8-7-7-7-7-|-5-5-5-5-6-6-6-6-8-8-8-8-7-7-7-7-|
|
| PM--------------------------------------------------------------|
| S S S S S S S S S S S S S S S S   S S S S S S S S S S S S S S S S
|---------------------------------|---------------------------------|
|---------------------------------|---------------------------------|
|---------------------------------|---------------------------------|
|---------------------------------|---------------------------------|
|-5-5-5-5-6-6-6-6-9-9-9-9-8-8-8-8-|-5-5-5-5-6-6-6-6-9-9-9-9-8-8-8-8-|
|---------------------------------|---------------------------------|

  PM--------------------------------------------------------------|
  S S S S S S S S S S S S S S S S   S S S S S S S S S S S S S S S S
|---------------------------------|---------------------------------|
|---------------------------------|---------------------------------|
|---------------------------------|---------------------------------|
|---------------------------------|---------------------------------|
|---------------------------------|---------------------------------|
|-5-5-5-5-6-6-6-6-8-8-8-8-7-7-7-7-|-5-5-5-5-6-6-6-6-8-8-8-8-7-7-7-7-|
|
| PM--------------------------------------------------------------|
| S S S S S S S S S S S S S S S S   S S S S S S S S S S S S S S S S
|---------------------------------|---------------------------------|
|---------------------------------|---------------------------------|
|---------------------------------|---------------------------------|
|---------------------------------|---------------------------------|
|-5-5-5-5-6-6-6-6-9-9-9-9-8-8-8-8-|-5-5-5-5-6-6-6-6-9-9-9-9-8-8-8-8-|
|---------------------------------|---------------------------------|

    PM|   PM|         PM|   PM|         PM|   PM|       PM------------|
  E E E E E E E E   E E E E E E E E   E E E E E E E E   E E E E E E E E
|-----------------|-----------------|-----------------|-----------------|
|-----------------|-----------------|-----------------|-----------------|
|-----------------|-----------------|-----------------|-----------------|
|-----------------|-----------------|-----------------|-----------------|
|-6-----5-----5s6-|-6-----5-----5s6-|-6-----5-----5s6-|-6-5-3-0-3-5-3-2-|
|-6-0-0-5-0-0-5s6-|-6-0-0-5-0-0-5s6-|-6-0-0-5-0-0-5s6-|-6-5-3-0-3-5-3-2-|
|
|   PM|   PM|         PM|   PM|         PM|   PM|       PM------------|
  E E E E E E E E   E E E E E E E E   E E E E E E E E   E E E E E E E E
|-----------------|-----------------|-----------------|-----------------|
|-----------------|-----------------|-----------------|-----------------|
|-----------------|-----------------|-----------------|-----------------|
|-----------------|-----------------|-----------------|-----------------|
|-6-----5-----5s6-|-6-----5-----5s6-|-6-----5-----5s6-|-6-5-3-0-3-5-3-2-|
|-6-0-0-5-0-0-5s6-|-6-0-0-5-0-0-5s6-|-6-0-0-5-0-0-5s6-|-6-5-3-0-3-5-3-2-|

  Gtrs I, II
    PM|   PM|         PM|   PM|         PM|   PM|       PM------------|
  E E E E E E E E   E E E E E E E E   E E E E E E E E   E E E E E E E E
|-----------------|-----------------|-----------------|-----------------|
|-----------------|-----------------|-----------------|-----------------|
|-----------------|-----------------|-----------------|-----------------|
|-----------------|-----------------|-----------------|-----------------|
|-6-----5-----5s6-|-6-----5-----5s6-|-6-----5-----5s6-|-6-5-3-0-3-5-3-2-|
|-6-0-0-5-0-0-5s6-|-6-0-0-5-0-0-5s6-|-6-0-0-5-0-0-5s6-|-6-5-3-0-3-5-3-2-|

 Verse
         PM|         PM|   PM|         PM|   PM|       PM------------|
  Q  E E E E E E   E E E E E E E E   E E E E E E E E   E E E E E E E E
|----------------|-----------------|-----------------|-----------------|
|----------------|-----------------|-----------------|-----------------|
|----------------|-----------------|-----------------|-----------------|
|----------------|-----------------|-----------------|-----------------|
|----6s5-----5s6-|-6-----5-----5s6-|-6-----5-----5s6-|-6-5-3-0-3-5-3-2-|
|----6s5-0-0-5s6-|-6-0-0-5-0-0-5s6-|-6-0-0-5-0-0-5s6-|-6-5-3-0-3-5-3-2-|

    PM|   PM|         PM|   PM|         PM|   PM|       PM------------|
  E E E E E E E E   E E E E E E E E   E E E E E E E E   E E E E E E E E
|-----------------|-----------------|-----------------|-----------------|
|-----------------|-----------------|-----------------|-----------------|
|-----------------|-----------------|-----------------|-----------------|
|-----------------|-----------------|-----------------|-----------------|
|-6-----5-----5s6-|-6-----5-----5s6-|-6-----5-----5s6-|-6-5-3-0-3-5-3-2-|
|-6-0-0-5-0-0-5s6-|-6-0-0-5-0-0-5s6-|-6-0-0-5-0-0-5s6-|-6-5-3-0-3-5-3-2-|

    PM|   PM|         PM|   PM|         PM|   PM|       PM------------|
  E E E E E E E E   E E E E E E E E   E E E E E E E E   E E E E E E E E
|-----------------|-----------------|-----------------|-----------------|
|-----------------|-----------------|-----------------|-----------------|
|-----------------|-----------------|-----------------|-----------------|
|-----------------|-----------------|-----------------|-----------------|
|-6-----5-----5s6-|-6-----5-----5s6-|-6-----5-----5s6-|-6-5-3-0-3-5-3-2-|
|-6-0-0-5-0-0-5s6-|-6-0-0-5-0-0-5s6-|-6-0-0-5-0-0-5s6-|-6-5-3-0-3-5-3-2-|

    PM|   PM|         PM|   PM|         PM|   PM|       PM------------|
  E E E E E E E E   E E E E E E E E   E E E E E E E E   E E E E E E E E
|-----------------|-----------------|-----------------|-----------------|
|-----------------|-----------------|-----------------|-----------------|
|-----------------|-----------------|-----------------|-----------------|
|-----------------|-----------------|-----------------|-----------------|
|-6-----5-----5s6-|-6-----5-----5s6-|-6-----5-----5s6-|-6-5-3-0-3-5-3-2-|
|-6-0-0-5-0-0-5s6-|-6-0-0-5-0-0-5s6-|-6-0-0-5-0-0-5s6-|-6-5-3-0-3-5-3-2-|

 Chorus
              PM          PM        PM
  E E E E E E E E    E  E E E  E  E E E
|-----------------|---------------------|
|-----------------|---------------------|
|-----------------|---------------------|
|-----------------|---------3-(3)-3-3---|
|-6-6-6-6-6-6-6-1-|-(1)-1-1-1-(1)-1-1-5-|
|-6-6-6-6-6-6-6-1-|-(1)-1-1-----------5-|

      PM--------|           PM        PM
   E  E E E E E E E    E  E E E  E  E E E
|-------------------|---------------------|
|-------------------|---------------------|
|-------------------|---------------------|
|-----------------5-|-(5)-5-5-8-(8)-8-8---|
|-(5)-5-5-5-5-5-5-3-|-(3)-3-3-6-(6)-6-6-6-|
|-(5)-5-5-5-5-5-5---|-------------------6-|

                PM          PM        PM        PM--------------|        PM  PM
  +E  E E E E E E E   +E  E E E +E  E E E   +E  E E E E E E E   E E Q  E E E E
|-------------------|---------------------|-------------------|----------------|
|-------------------|---------------------|-------------------|----------------|
|-------------------|---------------------|-------------------|----------------|
|-------------------|---------3-(3)-3-3---|-------------------|----------------|
|-(6)-6-6-6-6-6-6-1-|-(1)-1-1-1-(1)-1-1-5-|-(5)-5-5-5-5-5-5-5-|-5----------5---|
|-(6)-6-6-6-6-6-6-1-|-(1)-1-1-----------5-|-(5)-5-5-5-5-5-5-5-|-5--------0-5-0-|

 Pre-Verse
    PM|   PM|         PM|   PM|         PM|   PM|       PM------------|
  E E E E E E E E   E E E E E E E E   E E E E E E E E   E E E E E E E E
|-----------------|-----------------|-----------------|-----------------|
|-----------------|-----------------|-----------------|-----------------|
|-----------------|-----------------|-----------------|-----------------|
|-----------------|-----------------|-----------------|-----------------|
|-6-----5-----5s6-|-6-----5-----5s6-|-6-----5-----5s6-|-6-5-3-0-3-5-3-2-|
|-6-0-0-5-0-0-5s6-|-6-0-0-5-0-0-5s6-|-6-0-0-5-0-0-5s6-|-6-5-3-0-3-5-3-2-|

    PM|   PM|         PM|   PM|         PM|   PM|       PM------------|
  E E E E E E E E   E E E E E E E E   E E E E E E E E   E E E E E E E E
|-----------------|-----------------|-----------------|-----------------|
|-----------------|-----------------|-----------------|-----------------|
|-----------------|-----------------|-----------------|-----------------|
|-----------------|-----------------|-----------------|-----------------|
|-6-----5-----5s6-|-6-----5-----5s6-|-6-----5-----5s6-|-6-5-3-0-3-5-3-2-|
|-6-0-0-5-0-0-5s6-|-6-0-0-5-0-0-5s6-|-6-0-0-5-0-0-5s6-|-6-5-3-0-3-5-3-2-|

 Guitar Solo
  Gtr II
        PM----|           PM-----|
  E     E     E     E     E      E      E      E
|-----------------------------------------------------|
|-----------------------------------------------------|
|-----------------------------------------------------|
|-----------------------------------------------------|
|-6-----------------5-------------------5s=====6------|
|-6-----0-----0-----5-----0------0------5s=====6------|
|
| Gtr I
| |-3-| |-3-| |-3-| |-3-| |-3--| |-3--| |-3--| |-3--|
| S S S S S S S S S S S S S S  S S S  S S S  S S S  S
|-----------------------------------------------------|
|-----------------------------------------------------|
|--------------------------------7-8-10--------7-8-10-|
|-------5-7-8-8-7-5-------7-8-10--------7-8-10--------|
|-5-7-8-------------8-7-5-----------------------------|
|-----------------------------------------------------|

          PM------|                PM------|
  E       E        E       E       E        E        E        E
|----------------------------------------------------------------------|
|----------------------------------------------------------------------|
|----------------------------------------------------------------------|
|----------------------------------------------------------------------|
|-6------------------------5-------------------------5s=======6--------|
|-6-------0--------0-------5-------0--------0--------5s=======6--------|
|
| |--3--| |--3--|  |-3--|  |-3--|  |--3--|  |--3--|  |--3--|  |--3--|
| S  S  S S  S  S  S  S S  S  S S  S  S  S  S  S  S  S  S  S  S  S  S
|----------------------------------------------------------------------|
|----------------------------------------------------------------------|
|---------8-10-12-12-10-8------------------10-12-13----------10-12-13--|
|-8-10-12-----------------12-10-8-10-12-13----------10-12-13-----------|
|----------------------------------------------------------------------|
|----------------------------------------------------------------------|

            PM------|                  PM------|
   E        E        E        E        E        E        E        E
|-------------------------------------------------------------------------|
|-------------------------------------------------------------------------|
|-------------------------------------------------------------------------|
|-------------------------------------------------------------------------|
|--6--------------------------5--------------------------5s=======6-------|
|--6--------0--------0--------5--------0--------0--------5s=======6-------|
|
|  |--3--|  |--3--|  |--3--|  |--3--|  |--3--|  |--3--|  |--3--|  |--3--|
|  S  S  S  S  S  S  S  S  S  S  S  S  S  S  S  S  S  S  S  S  S  S  S  S
|-------------------------------------------------------------------------|
|-------------------------------------------------------------------------|
|----------12-13-15-15-13-12-------------------13-15-17----------13-15-17-|
|-12-13-15-------------------15-13-12-13-15-17----------13-15-17----------|
|-------------------------------------------------------------------------|
|-------------------------------------------------------------------------|

   PM------------------------------------------------------------|
   E        E        E        E        E        E        E        E
|--------------------------------------------------------------------------|
|--------------------------------------------------------------------------|
|--------------------------------------------------------------------------|
|--------------------------------------------------------------------------|
|--6--------5--------3--------0--------3--------5--------3--------2--------|
|--6--------5--------3--------0--------3--------5--------3--------2--------|
|
|  |--3--|  |--3--|  |--3--|  |--3--|  |--3--|  |--3--|  |--3--|  |--3--|
|  S  S  S  S  S  S  S  S  S  S  S  S  S  S  S  S  S  S  S  S  S  S  S  S
|--------------------------------------------------------------------------|
|--------------------------------------------------------------------------|
|----------15-17-19-19-17-15-------------------17-19-20----------17-19-20--|
|-15-17-19-------------------19-17-15-17-19-20----------17-19-20-----------|
|--------------------------------------------------------------------------|
|--------------------------------------------------------------------------|

       PM|      PM|
    E  E  E  E  E E  E  E
|---------------------------------|
|---------------------------------|
|---------------------------------|
|---------------------------------|
|---6--------5-------5s=6---------|
|---6--0--0--5--0-0--5s=6---------|
|
|   Q.    T  T  T T  Q. T  T  T T
|-/10----10h11p10p8h10-10h11p10p8-|
|---------------------------------|
|---------------------------------|
|---------------------------------|
|---------------------------------|
|---------------------------------|

      PM|     PM|            PM|   PM|
    E E  E  E E  E  E E    E E E E E E E E         W
|-----------------------|------------------|--------------|
|-----------------------|------------------|--------------|
|-----------------------|------------------|--------------|
|-----------------------|------------------|--------------|
|---6-------5-------5s6-|--6-----5-----5s6-|--------------|
|---6-0--0--5-0--0--5s6-|--6-0-0-5-0-0-5s6-|--------------|
|
|   |---3---| |--3--|      |-3-| |-3-|       |-3-| |-3-|
|   Q    Q  Q Q  Q  Q      Q Q Q Q Q Q       Q Q Q Q Q Q
|-/15---11-10-8-10-11---|-10---------------|---------6-8--|
|-----------------------|----8-9-8---------|--------------|
|-----------------------|----------7-8-----|-7-8-7-5------|
|-----------------------|------------------|---------8-7--|
|-----------------------|------------------|--------------|
|-----------------------|------------------|--------------|

  Gtr I
    PM---------------|            PM|         PM|
    E  E  E  E  E  E  E E     E   E  E  E  E  E  E  E
|-------------------------|---------------------------|
|-------------------------|---------------------------|
|-------------------------|---------------------------|
|-------------------------|-------------3-(3)-3--3----|
|---6--6--6--6--6--6--6-1-|--(1)--1--1--1-(1)-1--1--5-|
|---6--6--6--6--6--6--6-1-|--(1)--1--1--------------5-|
|
| Gtr II
|   E  E  E  Q  E  E  E       E   E  E  E  E  E  E  E
|-/15-11-10-11-10----10---|-/15--11-10-11-10--8-10-11-|
|-----------------11------|---------------------------|
|-------------------------|---------------------------|
|-------------------------|---------------------------|
|-------------------------|---------------------------|
|-------------------------|---------------------------|

         PM---------|
   E     E  E E E E E E    E   E E E  E   E  E  E
|-----------------------|--------------------------|
|-----------------------|--------------------------|
|-----------------------|--------------------------|
|---------------------5-|-(5)--5---8-(8)--8--------|
|-(5)----5--5-5-5-5-5-3-|-(3)--3---6-(6)--6-----6--|
|-(5)----5--5-5-5-5-5---|-----------------------6--|
|
|                                         |--3--|
|  H    +E    E   E   E   +E   E   H +E   S  S  S
|-10---(10)-------------|--------------------------|
|-----------------------|--------------------------|
|-------------7---5---7-|-(7)-10---7-(7)-----------|
|-----------------------|--------------------------|
|-----------------------|----------------11-10-11--|
|-----------------------|--------------------------|

             PM------------------------------------------|
   E         E        E        E        E        E        E        E
|--------------------------------------------------------------------------|
|--------------------------------------------------------------------------|
|--------------------------------------------------------------------------|
|--------------------------------------------------------------------------|
|-(6)--------6--------6--------6--------6--------6--------6--------1-------|
|-(6)--------6--------6--------6--------6--------6--------6--------1-------|
|
|  |--3---|  |--3--|  |--3--|  |--3--|  |--3--|  |--3--|  |--3--|  |--3--|
|  S   S  S  S  S  S  S  S  S  S  S  S  S  S  S  S  S  S  S  S  S  S  S  S
|--------------------------------------------------------------------------|
|--------------------------------------------------------------------------|
|--------------------------------------------------------12-13-15-13-12-10-|
|--------------10-12-15-13-12----------------10-12-13-15-------------------|
|-13--10-11-13----------------11-13-10-11-13-------------------------------|
|--------------------------------------------------------------------------|

             PM------|                            PM------|
   E         E        E        E        E         E        E        E
|---------------------------------------------------------------------|
|---------------------------------------------------------------------|
|---------------------------------------------------------------------|
|------------------------------3-------(3)--------3--------3----------|
|-(1)--------1--------1--------1-------(1)--------1--------1--------5-|
|-(1)--------1--------1---------------------------------------------5-|
|
|                                                                   ~~
|  |--3---|  |--3--|  |--3--|  |--3--|  |--3---|  |--3--|  |--3--|
|  S   S  S  S  S  S  S  S  S  S  S  S  S   S  S  S  S  S  S  S  S  E
|---------------------------------------------------------------------|
|---------------------------------------------------------------------|
|---------------------------------------------------------------------|
|-15--13-12-10----------------10-------10--12----10-12-13-15----------|
|--------------13-11-10-11-13----11-13--------13-------------13-11-10-|
|---------------------------------------------------------------------|

        PM-----------------------------------------------|
    E   E  E  E  E  E  E  E          E  E  E  E  E  E  E  E
|---------------------------------|-------------------------------|
|---------------------------------|-------------------------------|
|---------------------------------|-------------------------------|
|---------------------------------|-------------------------------|
|--(5)--5--5--5--5--5--5--5-------|--5--5--5--5--5--5--5--5-------|
|--(5)--5--5--5--5--5--5--5-------|--5--5--5--5--5--5--5--5-------|
|
|                   |--3--|          |--3--|
|  +E   E  E  E  E  S  S  S  E  E    S  S  S  E  E  E  E  E  E  E
|---------------------------------|-------------------------------|
|---------------------------------|-------------------------------|
|------12-12----------------------|-------------------------------|
|------------13-13-12h13p12-10-12-|-------------------------------|
|-(10)----------------------------|-12h13p12-12-13-12-------------|
|---------------------------------|-------------------13-12-10-12-|

 Interlude
  Gtrs I, II Gtr I
             PM--------------------------------|
  S S E Q  E S S E  S S   E  S S S S E S S S S S E.
|-----------------------|-----------------------------|
|-----------------------|-----------------------------|
|-----------------------|-----------------------------|
|-----------------------|-----------------------------|
|-----------------------|-----------------------------|
|-0-0--------0-0----0-0-|----0-0-0-0---0-0-0-0-0------|

  PM-------------------------------------------|
  S S E Q  E S S E S S   E S S S S E S S S S S E.
|----------------------|---------------------------|
|----------------------|---------------------------|
|----------------------|---------------------------|
|----------------------|---------------------------|
|----------------------|---------------------------|
|-0-0--------0-0---0-0-|---0-0-0-0---0-0-0-0-0-----|

  Gtrs I, II
  PM-------------------------------------------|
  S S E Q  E S S E S S   E S S S S E S S S S S E.
|----------------------|---------------------------|
|----------------------|---------------------------|
|----------------------|---------------------------|
|----------------------|---------------------------|
|----------------------|---------------------------|
|-0-0--------0-0---0-0-|---0-0-0-0---0-0-0-0-0-----|

  PM-----------------------------|
  S S E Q  E S S E S S   E S S S S E E E   Q
|----------------------|-------------------------|
|----------------------|-------------------------|
|----------------------|-------------------------|
|----------------------|-------------------------|
|----------------------|-------------------------|
|-0-0--------0-0---0-0-|---0-0-0-0-------/19\----|

    Gtrs I, II
    PM-----------------------------------------|
    S S E Q  E S S E S S   E S S S S E S S S S S E.  4x
||-----------------------|---------------------------||
||o----------------------|--------------------------o||
||-----------------------|---------------------------||
||-----------------------|---------------------------||
||o----------------------|--------------------------o||
||--0-0--------0-0---0-0-|---0-0-0-0---0-0-0-0-0-----||

                          1.,2.,3.                   4.
    PM|        PM--------------------------|            PM----|   PM  PM
    S S E Q.   S S E S S   E S S S S E S S S E. E  4x E S S S S Q E E E
||-----------------------|-------------------------||--------------------|
||o----------------------|------------------------o||--------------------|
||-----------------------|-------------------------||--------------------|
||-----------------------|-------------------------||--------------------|
||o-------6\-------------|-------------------3--1-o||---------------5----|
||--0-0---6\---0-0---0-0-|---0-0-0-0---0-0-0-3--1--||---0-0-0-0---0-5-0--|

 Out-Chorus
              PM          PM        PM
  E E E E E E E E    E  E E E  E  E E E
|-----------------|---------------------|
|-----------------|---------------------|
|-----------------|---------------------|
|-----------------|---------3-(3)-3-3---|
|-6-6-6-6-6-6-6-1-|-(1)-1-1-1-(1)-1-1-5-|
|-6-6-6-6-6-6-6-1-|-(1)-1-1-----------5-|

                PM          PM        PM
   E  E E E E E E E    E  E E E  E  E E E
|-------------------|---------------------|
|-------------------|---------------------|
|-------------------|---------------------|
|-----------------5-|-(5)-5-5-8-(8)-8-8---|
|-(5)-5-5-5-5-5-5-3-|-(3)-3-3-6-(6)-6-6-6-|
|-(5)-5-5-5-5-5-5---|-------------------6-|

                PM          PM        PM
   E  E E E E E E E    E  E E E  E  E E E
|-------------------|---------------------|
|-------------------|---------------------|
|-------------------|---------------------|
|-------------------|---------3-(3)-3-3---|
|-(6)-6-6-6-6-6-6-1-|-(1)-1-1-1-(1)-1-1-5-|
|-(6)-6-6-6-6-6-6-1-|-(1)-1-1-----------5-|

                PM          PM        PM
   E  E E E E E E E    E  E E E  E  E E E
|-------------------|---------------------|
|-------------------|---------------------|
|-------------------|---------------------|
|-----------------5-|-(5)-5-5-8-(8)-8-8---|
|-(5)-5-5-5-5-5-5-3-|-(3)-3-3-6-(6)-6-6-6-|
|-(5)-5-5-5-5-5-5---|-------------------6-|

  Gtr I
                PM          PM        PM
   E  E E E E E E E    E  E E E  E  E E E
|-------------------|---------------------|
|-------------------|---------------------|
|-------------------|---------------------|
|-------------------|---------3-(3)-3-3---|
|-(6)-6-6-6-6-6-6-1-|-(1)-1-1-1-(1)-1-1-5-|
|-(6)-6-6-6-6-6-6-1-|-(1)-1-1-----------5-|
|
| Gtr II
|               PM          PM        PM
   E  E E E E E E E    E  E E E  E  E E E
|-------------------|---------------------|
|-------------------|---------------------|
|-------------------|---------------------|
|-------------------|---------3-(3)-3-3---|
|--6--6-6-6-6-6-6-1-|-(1)-1-1-1-(1)-1-1-5-|
|--6--6-6-6-6-6-6-1-|-(1)-1-1-----------5-|

                PM          PM        PM
   E  E E E E E E E    E  E E E  E  E E E
|-------------------|---------------------|
|-------------------|---------------------|
|-------------------|---------------------|
|-----------------5-|-(5)-5-5-8-(8)-8-8---|
|-(5)-5-5-5-5-5-5-3-|-(3)-3-3-6-(6)-6-6-6-|
|-(5)-5-5-5-5-5-5---|-------------------6-|
|
|               PM          PM        PM
   E  E E E E E E E    E  E E E  E  E E E
|-------------------|---------------------|
|-------------------|---------------------|
|-------------------|---------------------|
|-----------------5-|-(5)-5-5-8-(8)-8-8---|
|-(5)-5-5-5-5-5-5-3-|-(3)-3-3-6-(6)-6-6-6-|
|-(5)-5-5-5-5-5-5---|-------------------6-|

                PM          PM        PM
   E  E E E E E E E    E  E E E  E  E E E
|-------------------|---------------------|
|-------------------|---------------------|
|-------------------|---------------------|
|-------------------|---------3-(3)-3-3---|
|-(6)-6-6-6-6-6-6-1-|-(1)-1-1-1-(1)-1-1-5-|
|-(6)-6-6-6-6-6-6-1-|-(1)-1-1-----------5-|
|
|               PM          PM        PM
   E  E E E E E E E    E  E E E  E  E E E
|-------------------|---------------------|
|-------------------|---------------------|
|-------------------|---------------------|
|-------------------|---------3-(3)-3-3---|
|-(6)-6-6-6-6-6-6-1-|-(1)-1-1-1-(1)-1-1-5-|
|-(6)-6-6-6-6-6-6-1-|-(1)-1-1-----------5-|
|
| Gtr III
|         W                      W
|-------------------|---------------------|
|-------------------|---------------------|
|-------------------|---------------------|
|-------------------|---------------------|
|-------------------|---------------------|
|-------------------|---------------------|

       PM-------------------------------------|
   E   E  E E E E E  E    E  E  E  E  E  E  E  E
|----------------------|-------------------------|
|----------------------|-------------------------|
|----------------------|-------------------------|
|----------------------|-------------------------|
|-(5)--5--5-5-5-5-5--5-|--5--5--5--5--5--5--5--5-|
|-(5)--5--5-5-5-5-5--5-|--5--5--5--5--5--5--5--5-|
|
|      PM-------------------------------------|
   E   E  E E E E E  E    E  E  E  E  E  E  E  E
|----------------------|-------------------------|
|----------------------|-------------------------|
|----------------------|-------------------------|
|----------------------|-------------------------|
|-(5)--5--5-5-5-5-5--5-|--5--5--5--5--5--5--5--5-|
|-(5)--5--5-5-5-5-5--5-|--5--5--5--5--5--5--5--5-|
|
   E   E  E E E E E  E    E  E  E  E  E  E  E  E
|----------------------|-------------------------|
|----------------------|-------------------------|
|-----14-14-9-9-7-7-15-|-15-17-17-19-19-20-20-19-|
|----------------------|-------------------------|
|-----12-12-7-7-5-5-13-|-13-15-15-17-17-18-18-17-|
|----------------------|-------------------------|

   Outro
    Gtr I
     PM----------------------------------------------
     S  S  E     S  S  Q           S  S  E     S  S
||--------------------------------------------------|
||o-------------------------------------------------|
||--------------------------------------------------|
||--------------------------------------------------|
||o-------------------------------------------------|
||---0--0--------0--0--------------0--0--------0--0-|
|
|   Gtr II
|    PM----------------------------------------------
|    S  S  S  S  S  S  S  S  S  S  S  S  S  S  S  S
||--------------------------------------------------|
||o-------------------------------------------------|
||--------------------------------------------------|
||--------------------------------------------------|
||o-------------------------------------------------|
||--12-12-15-15-12-12-12-12-13-13-12-12-15-15-12-12-|

 -----------------------------------------|
   E     S        S        S  S  E    S S E  Q    4x
|-------------------------------------------------||
|------------------------------------------------o||
|-------------------------------------------------||
|-------------------------------------------------||
|-------------------------------------------[6]--o||
|--------0--------0--------0--0-------0-0---------||
|
|----------------------------------|
|  S  S  S  S  S  S  S  S  S  S  S  S        Q    4x
|-------------------------------------------------||
|------------------------------------------------o||
|-------------------------------------------------||
|-------------------------------------------------||
|-------------------------------------------[6]--o||
|-12-12-12-12-12-12-12-12-13-12-12-12-------------||

                            1.,2.,3.                   4.
    Gtrs I, II
    PM---------------------------------------|            PM----|
    S S E S S Q  S S E S S   E S S S S E S S S E. E  4x E S S S S  H   E
||-------------------------|-------------------------||-------------------*|
||o------------------------|------------------------o||-------------------*|
||-------------------------|-------------------------||-------------------*|
||-------------------------|-------------------------||-------------------*|
||o------------------------|-------------------3--1-o||-------------------*|
||--0-0---0-0----0-0---0-0-|---0-0-0-0---0-0-0-3--1--||---0-0-0-0---------*|

Duration Legend

W - whole; H - half; Q - quarter; E - 8th; S - 16th; T - 32nd; X - 64th; a - acciaccatura
+ - note tied to previous; . - note dotted; .. - note double dotted
Uncapitalized letters represent notes that are staccato (1/2 duration)
Irregular groupings are notated above the duration line
Duration letters will always appear directly above the note/fret number it represents the
duration for.  Duration letters with no fret number below them represent rests.  Multi-
bar rests are notated in the form Wxn, where n is the number of bars to rest for.  Low
melody durations appear below the staff

 h   - hammer-on
 p   - pull-off
 b   - bend
 pb  - pre-bend
 r   - bend release (if no number after the r, then release immediately)
 /\  - slide into or out of (from/to "nowhere")
 s   - legato slide
 S   - shift slide


   - natural harmonic
[n]  - artificial harmonic
n(n) - tapped harmonic
 ~   - vibrato
 tr  - trill
 T   - tap
 TP  - trem. picking
 PM  - palm muting
\n/  - tremolo bar dip; n = amount to dip
 \n  - tremolo bar down
 n/  - tremolo bar up
/n\  - tremolo bar inverted dip
 =   - hold bend; also acts as connecting device for hammers/pulls
 <>  - volume swell (louder/softer)
 x   - on rhythm slash represents muted slash
 o   - on rhythm slash represents single note slash

Misc Legend

 |  - bar
||  - double bar
||o - repeat start
o|| - repeat end
*|  - double bar (ending)
 :  - bar (freetime)
 $  - Segno
 &  - Coda
Tempo markers -
 
   = BPM(8/16=s8/s16), where s8 = swing 8ths, s16 = swing 16ths