Sonic Youth - My Friend Goo Text Guitar Tab

Learn the song with the online tablature player
BASS INTRO: repeat x2
  Gtr 1
D|--------------------------------|--------------------------------|
E|--------------------------------|--------------------------------|
G|--------------------------------|--------------------------------|
D|--------------------------------|--------------------------------|
G|--------------------------------|--------------------------------|
E|--------------------------------|--------------------------------|
 |
 |Gtr 2
G|--------------------------------|--------------------------------|
F|--------------------------------|--------------------------------|
F|--------------------------------|--------------------------------|
D|--------------------------------|--------------------------------|
G|--------------------------------|--------------------------------|
G|--------------------------------|--------------------------------|

1ST VERSE: repeat x4
  Gtr 1
D|--------------------------------|--------------------------------|
E|--------------------------------|--------------------------------|
G|--------------------------------|--------------------------------|
D|5-------7---7---7---7---7---5---|----7---7-------7---7---7---7---|
G|5-------7---7---7---7---7---5---|----7---7-------7---7---7---7---|
E|5-------7---7---7---7---7---5---|----7---7-------7---7---7---7---|
 |
 |Gtr 2
G|4-------4---4---4---4---4---4---|----4---4---4---4---4---4---4---|
F|4-------6---6---6---6---6---4---|----6---6---6---6---6---6---6---|
F|4-------6---6---6---6---6---4---|----6---6---6---6---6---6---6---|
D|4-------4---4---4---4---4---4---|----4---4---4---4---4---4---4---|
G|4-------4---4---4---4---4---4---|----4---4---4---4---4---4---4---|
G|4-------4---4---4---4---4---4---|----4---4---4---4---4---4---4---|

1ST CHORUS: repeat x4
  Gtr 1
D|--------------------------------|--------------------------------|
E|--------------------------------|--------------------------------|
G|--------------------------------|--------------------------------|
D|3-------3---3---3---3---3/--9---|----9---9---9---9---9---9---9---|
G|3-------3---3---3---3---3/--9---|----9---9---9---9---9---9---9---|
E|3-------3---3---3---3---3/--9---|----9---9---9---9---9---9---9---|
 |
 |Gtr 2
G|--------------------------------|----6-----------6---------------|
F|--------------------------------|--------7-----------7-------7---|
F|4---4---4---4---4---4---4---6---|------------6-----------6-------|
D|0---0---0---0---0---0---0---6---|--------------------------------|
G|0---0---0---0---0---0---0---6---|--------------------------------|
G|0---0---0---0---0---0---0---6---|--------------------------------|

2ND VERSE: repeat x4

2ND CHORUS: repeat x4

3RD VERSE: repeat x4

3RD CHORUS: repeat x4

BRIDGE
  Gtr 1
D|--------------------------------|--------------------------------|
E|--------------------------------|--------------------------------|
G|--------------------------------|--------------------------------|
D|15------12--12--12--12--12--15--|----12--12------12--12--12--12--|
G|15------12--12--12--12--12--15--|----12--12------12--12--12--12--|
E|15------12--12--12--12--12--15--|----12--12------12--12--12--12--|
 |
 |Gtr 2
G|--------------------------------|--------------------------------|
F|--------------------------------|--------------------------------|
F|--------------------------------|--------------------------------|
D|12------9---9---9---9---9---12--|----9---9---9---9---9---9---9---|
G|12------9---9---9---9---9---12--|----9---9---9---9---9---9---9---|
G|12------9---9---9---9---9---12--|----9---9---9---9---9---9---9---|

  Gtr 1
D|--------------------------------|--------------------------------|
E|--------------------------------|--------------------------------|
G|--------------------------------|--------------------------------|
D|15------12--12--12--12--12--15--|----12--12------12--12--12--12--|
G|15------12--12--12--12--12--15--|----12--12------12--12--12--12--|
E|15------12--12--12--12--12--15--|----12--12------12--12--12--12--|
 |
 |Gtr 2
G|--------------------------------|--------------------------------|
F|--------------------------------|--------------------------------|
F|--------------------------------|--------------------------------|
D|12------9---9---9---9---9---12--|----9---9---9---9---9---9---9---|
G|12------9---9---9---9---9---12--|----9---9---9---9---9---9---9---|
G|12------9---9---9---9---9---12--|----9---9---9---9---9---9---9---|

  Gtr 1
D|--------------------------------|--------------------------------|
E|--------------------------------|--------------------------------|
G|--------------------------------|--------------------------------|
D|3-------0---0---0---0---0---3---|----0---0-------0---0---0---0---|
G|3-------0---0---0---0---0---3---|----0---0-------0---0---0---0---|
E|3-------0---0---0---0---0---3---|----0---0-------0---0---0---0---|
 |
 |Gtr 2
G|9-------9---9---9---9---9---9---|----9---9---9---9---9---9---9---|
F|9-------11--11--11--11--11--9---|----11--11--11--11--11--11--11--|
F|9-------11--11--11--11--11--9---|----11--11--11--11--11--11--11--|
D|9-------9---9---9---9---9---9---|----9---9---9---9---9---9---9---|
G|9-------9---9---9---9---9---9---|----9---9---9---9---9---9---9---|
G|9-------9---9---9---9---9---9---|----9---9---9---9---9---9---9---|

  Gtr 1
D|--------------------------------|--------------------------------|
E|--------------------------------|--------------------------------|
G|--------------------------------|--------------------------------|
D|3-------0---0---0---0---0---3---|----0---0-------0---0---0---0---|
G|3-------0---0---0---0---0---3---|----0---0-------0---0---0---0---|
E|3-------0---0---0---0---0---3---|----0---0-------0---0---0---0---|
 |
 |Gtr 2
G|9-------9---9---9---9---9---9---|----9---9---9---9---9---9---9---|
F|9-------11--11--11--11--11--9---|----11--11--11--11--11--11--11--|
F|9-------11--11--11--11--11--9---|----11--11--11--11--11--11--11--|
D|9-------9---9---9---9---9---9---|----9---9---9---9---9---9---9---|
G|9-------9---9---9---9---9---9---|----9---9---9---9---9---9---9---|
G|9-------9---9---9---9---9---9---|----9---9---9---9---9---9---9---|

BREAK SECTION I: repeat x4
  Gtr 1
D|12--12--12--12--12--12--12/-15--|15--15--15--15--14--14--14--14--|
E|10--10--10--10--10--10--10/-13--|13--13--13--13--12--12--12--12--|
G|0---0---0---0---0---0---0---0---|0---0---0---0---0---0---0---0---|
D|0---0---0---0---0---0---0---0---|0---0---0---0---0---0---0---0---|
G|0---0---0---0---0---0---0---0---|0---0---0---0---0---0---0---0---|
E|--------------------------------|--------------------------------|
 |
 |Gtr 2
G|----------------------------0-0-|0-0-0-0-0---0---0---0---0---0---|
F|------------12--------------1212|1212121212\-9---9/--12--12--0---|
F|--------12------------------0-0-|0-0-0-0-0---0---0---0---0---0---|
D|----12--------------12----------|--------------------------------|
G|12--------------12--------------|--------------------------------|
G|--------------------------------|--------------------------------|

BREAK SECTION II
  Gtr 1
D|18^^^^^^^^^^^^^^^^^^^^^^^^^^^^^^|^^^^^^^^^^^^^^^^^^^^------------|
E|16^^^^^^^^^^^^^^^^^^^^^^^^^^^^^^|^^^^^^^^^^^^^^^^^^^^------------|
G|--------------------------------|--------------------------------|
D|--------------------------------|--------------------------------|
G|--------------------------------|--------------------------------|
E|--------------------------------|--------------------------------|
 |
 |Gtr 2 (w/ heavy phasing)
G|13^^^^^^^^^^^^^^^^^^^^^^^^^^^^^^|^^^^^^^^^^^^^^^^^^^^---------|
F|15^^^^^^^^^^^^^^^^^^^^^^^^^^^^^^|^^^^^^^^^^^^^^^^^^^^------------|
F|15^^^^^^^^^^^^^^^^^^^^^^^^^^^^^^|^^^^^^^^^^^^^^^^^^^^------------|
D|13^^^^^^^^^^^^^^^^^^^^^^^^^^^^^^|^^^^^^^^^^^^^^^^^^^^------------|
G|13^^^^^^^^^^^^^^^^^^^^^^^^^^^^^^|^^^^^^^^^^^^^^^^^^^^------------|
G|13^^^^^^^^^^^^^^^^^^^^^^^^^^^^^^|^^^^^^^^^^^^^^^^^^^^------------|

KEY CHANGE: repeat x4
  Gtr 1
D|--------------------------------|--------------------------------|
E|--------------------------------|--------------------------------|
G|--------------------------------|--------------------------------|
D|6-------8---8---8---8---8---6---|----8---8---8---8---8---8---8---|
G|6-------8---8---8---8---8---6---|----8---8---8---8---8---8---8---|
E|6-------8---8---8---8---8---6---|----8---8---8---8---8---8---8---|
 |
 |Gtr 2
G|5---5---5---5---5---5---5---5---|5---5---5---5---5---5---5---5---|
F|5---7---7---7---7---7---7---7---|5---7---7---7---7---7---7---7---|
F|5---7---7---7---7---7---7---7---|5---7---7---7---7---7---7---7---|
D|5---5---5---5---5---5---5---5---|5---5---5---5---5---5---5---5---|
G|5---5---5---5---5---5---5---5---|5---5---5---5---5---5---5---5---|
G|5---5---5---5---5---5---5---5---|5---5---5---5---5---5---5---5---|

OUTRO CHORUS
  Gtr 1
D|--------------------------------|--------------------------------|
E|--------------------------------|--------------------------------|
G|--------------------------------|--------------------------------|
D|--------------------------------|--------------------------------|
G|--------------------------------|--------------------------------|
E|--------------------------------|--------------------------------|
 |
 |Gtr 2
G|--------------------------------|--------------------------------|
F|--------------------------------|--------------------------------|
F|--------------------------------|--------------------------------|
D|--------------------------------|--------------------------------|
G|--------------------------------|--------------------------------|
G|--------------------------------|--------------------------------|

  Gtr 1
D|--------------------------------|--------------------------------|
E|--------------------------------|--------------------------------|
G|--------------------------------|--------------------------------|
D|--------------------------------|--------------------------------|
G|--------------------------------|--------------------------------|
E|--------------------------------|--------------------------------|
 |
 |Gtr 2
G|--------------------------------|--------------------------------|
F|--------------------------------|--------------------------------|
F|--------------------------------|--------------------------------|
D|--------------------------------|--------------------------------|
G|--------------------------------|--------------------------------|
G|--------------------------------|--------------------------------|

  Gtr 1
D|--------------------------------|--------------------------------|
E|--------------------------------|--------------------------------|
G|--------------------------------|--------------------------------|
D|3-------3---3---3---3---3/--9---|----9---9---9---9---9---9---9---|
G|3-------3---3---3---3---3/--9---|----9---9---9---9---9---9---9---|
E|3-------3---3---3---3---3/--9---|----9---9---9---9---9---9---9---|
 |
 |Gtr 2
G|--------------------------------|----6-----------6---------------|
F|--------------------------------|--------7-----------7-------7---|
F|4---4---4---4---4---4---4---6---|------------6-----------6-------|
D|0---0---0---0---0---0---0---6---|--------------------------------|
G|0---0---0---0---0---0---0---6---|--------------------------------|
G|0---0---0---0---0---0---0---6---|--------------------------------|

  Gtr 1
D|--------------------------------|--------------------------------|
E|--------------------------------|--------------------------------|
G|--------------------------------|--------------------------------|
D|3-------3---3---3---3---3/--9---|----9---9---9---9---9---9---9---|
G|3-------3---3---3---3---3/--9---|----9---9---9---9---9---9---9---|
E|3-------3---3---3---3---3/--9---|----9---9---9---9---9---9---9---|
 |
 |Gtr 2
G|--------------------------------|----6-----------6---------------|
F|--------------------------------|--------7-----------7-------7---|
F|4---4---4---4---4---4---4---6---|------------6-----------6-------|
D|0---0---0---0---0---0---0---6---|--------------------------------|
G|0---0---0---0---0---0---0---6---|--------------------------------|
G|0---0---0---0---0---0---0---6---|--------------------------------|

  Gtr 1
D|--------------------------------|--------------------------------|
E|--------------------------------|--------------------------------|
G|--------------------------------|--------------------------------|
D|3-------3---3---3---3---3/--9---|----9---9---9---9---9---9---9---|
G|3-------3---3---3---3---3/--9---|----9---9---9---9---9---9---9---|
E|3-------3---3---3---3---3/--9---|----9---9---9---9---9---9---9---|
 |
 |Gtr 2
G|--------------------------------|----6-----------6---------------|
F|--------------------------------|--------7-----------7-------7---|
F|4---4---4---4---4---4---4---6---|------------6-----------6-------|
D|0---0---0---0---0---0---0---6---|--------------------------------|
G|0---0---0---0---0---0---0---6---|--------------------------------|
G|0---0---0---0---0---0---0---6---|--------------------------------|

  Gtr 1
D|--------------------------------|--------------------------------|
E|--------------------------------|--------------------------------|
G|--------------------------------|--------------------------------|
D|3-------3---3---3---3---3/--9---|----9---9---9---9---9---9---9---|
G|3-------3---3---3---3---3/--9---|----9---9---9---9---9---9---9---|
E|3-------3---3---3---3---3/--9---|----9---9---9---9---9---9---9---|
 |
 |Gtr 2
G|--------------------------------|----6-----------6---------------|
F|--------------------------------|--------7-----------7-------7---|
F|4---4---4---4---4---4---4---6---|------------6-----------6-------|
D|0---0---0---0---0---0---0---6---|--------------------------------|
G|0---0---0---0---0---0---0---6---|--------------------------------|
G|0---0---0---0---0---0---0---6---|--------------------------------|

  Gtr 1
D|--------------------------------|
E|--------------------------------|
G|--------------------------------|
D|3-------------------------------|
G|3-------------------------------|
E|3-------------------------------|
 |
 |Gtr 2
G|--------------------------------|
F|0-h-2---------------------------|
F|0-h-2---------------------------|
D|0-------------------------------|
G|0-------------------------------|
G|0-------------------------------|

--------------- ME SAID WHILE BACK .. >

Kim's part

For this song, Kim's chords are kinda muddy, so it's up to you whether
you just want to play the roots or go for the full chord.

verse

D-------------------------|
E-------------------------|
G-------------------------|
D--5-7-7-7-7-7-7-5-7-7-7--|
G--5-7-7-7-7-7-7-5-7-7-7--|
E--5-7-7-7-7-7-7-5-7-7-7--|

chorus

D-------------------------------------------|
E-------------------------------------------|
G-------------------------------------------|
D--3--3-3-3-3-3-3-3-3-\9-9-9-9-9-9-9-9-9-9--|
G--3--3-3-3-3-3-3-3-3-\9-9-9-9-9-9-9-9-9-9--|
E--3--3-3-3-3-3-3-3-3-\9-9-9-9-9-9-9-9-9-9--|

instrumental

D---------------------------------------------|
E---------------------------------------------|
G---------------------------------------------|
D--15-12-12-12-12-12-12-15-12-12-12-12-12-12--|
G--15-12-12-12-12-12-12-15-12-12-12-12-12-12--|
E--15-12-12-12-12-12-12-15-12-12-12-12-12-12--|

then:

D-------------------------------------------|
E-------------------------------------------|
G---------------------12-12-12-12-12-12-12--|
D--12--12-12-12-12-12-12-12-12-12-12-12-12--|
G--12--12-12-12-12-12-12-12-12-12-12-12-12--|
E--12--12-12-12-12-12-12-12-12-12-12-12-12--|

then just do some brief skronk picking during the pause

key change:

D---------------------------|
E---------------------------|
G---------------------------|
D--6-8-8-8-8-8-8-6-8-8-8-8--|
G--6-8-8-8-8-8-8-6-8-8-8-8--|
E--6-8-8-8-8-8-8-6-8-8-8-8--|