Sos Band - Take Your Time Do It Right Text Guitar Tab

Learn the song with the online tablature player
Not entirely sure if the opens are played as opens, but that's sort of irrelevant as I'm
quite sure about all of the notes.
A few extra things are added in by the original bassist, some of which are included.
The end may not be 100% because the slap pattern was hard to hear. Hope you like it.

-------------------------------------|
-2-2-0-------------2-------------0---|   X3
-------2-------0-3----3-3-3--0-3-----|
---------3-0-0-----------3-----------|

------------------0--------------|
-0-0-2------0-2-----2-2----------| X8
----------------2----------------|
-------0-------- ----------------|

-------------------------------------|
-2-2-0-------------2-------------0---|   X2
-------2-------0-3----3-3-3--0-3-----|
---------3-0-0-----------3-----------|

------------------0--------------|
-0-0-2------0-2-----2-2----------| X8
---------------------------------|
-------0--------0----------------|

-------------------------------------|
-2-2-0-------------2-------------0---|   X4
-------2-------0-3----3-3-3--0-3-----|
---------3-0-0-----------3-----------|

-------------------------------------|
-2-2-0-------------2-------------0---|   X4
-------2-------0-3----3-3-3--0-3-----|
---------3-0-0-----------3-----------|

---------------------2-4-4-----------|
-2-2-0-------5-5-5-2-----------------|
-------2-----------------------------|
---------3-0-------------------------|

---------14h12-----------14h12--------|
--------------------------------------|
--------------------------------------|
--------------------------------------|

-------------------------|
-------------------------| X2
-------0-0---3-3---3-3---|
-0-0---------------------|

Slapped/Fades Out
-------------0----------------2---4----------0----0------0-0-------|
-2-2-0---------2---------------------------------------------0-----|  X4
-------2------------0-0-3-0-0---0-------3-3---3-3---3---0-3--------|
---------3-0------0------------------------------------------------|