Steppenwolf - Magic Carpet Ride Text Bass Tab

Learn the song with the online tablature player
Intro
Verse
 |--------|--------|--------|--------|--------|--------|--------|--------|
 |--------|--------|--------|--------|--------|--------|--------|--------|
 |55-3----|55-3----|55-3----|55-3----|55-3----|55-3----|55-3----|55-3----|
 |----3-3-|-----33-|----3-3-|-----33-|----3-3-|-----33-|----3-3-|-----33-|

Chorus
 |--------|--------|--------|--------|--------|--------|--------|--------|
 |--------|--------|--------|--------|--------|--------|--------|--------|
 |55-3----|55-3----|55-3----|55-3----|55-3----|55-3----|55-3----|55-3----|
 |----3-3-|-----33-|----3-3-|-----33-|----3-3-|-----33-|----3-3-|-----33-|

Bridge                                                          |
 |--------|--------|--------|-----tT-|-----tT-|-----tT-|-----tT-|
 |--------|--------|--------|---T---T|---T---T|---T---T|---T----|
 |--------|--------|-------3/t-t-----|t-t-----|t-t-----|t-t-----|
 |--------|--------|--------|--------|--------|--------|--------|

Verse
Chorus
Bridge

Solo I
x4)
||-----79-||
||---9---9||
||7-7-----||
||--------||

Solo II
 (x4)
||--------|--------|--------|-----42-||
||2-22-0-0|2-22-0-0|2-22-0-0|2-22---4||
||------2-|------2-|------2-|--------||
||--------|--------|--------|--------||

 |-----42-|-----42-|-----42-|-----42-|
 |2-22---4|2-22---4|2-22---4|2-22---4|
 |--------|--------|--------|--------|
 |--------|--------|--------|--------|
 (x2)
||--------|-----42-|--------|-----42-||
||2-22-0-0|2-22---4|2-22-0-0|2-22---4||
||------2-|--------|------2-|--------||
||--------|--------|--------|--------||

 |--------|-----42-|--------|-----42-|--------|-----42-|--------|--------|
 |2-22----|-------4|2-22----|-------4|2-22----|-------4|2-22----|--------|
 |-----20-|--------|-----20-|--------|-----20-|--------|-----20-|-----20-|
||-------2|0-00----|-------2|0-00----|-------2|0-00----|-------2|0-00---2|

 |--------|--------|--------|--------|
 |--------|--------|--------|--------|
 |-----0-0|-----20-|-----0-0|-----20-|
 |0-00--2-|0-00---2|0-00--2-|0-00---2|

 |--------|--------|--------|--------|
 |--------|--------|--------|--------|
 |-----20-|-----20-|-----20-|-----20-|
 |0-00---2|0-00---2|0-00---2|0-00---2|0

Verse

DMITRI'S BASS TAB NOTATION GUIDE

For these reasons, I use the following tab format standards:

To make the tab quick and easy to read, each measure within a song is written using
the minimum number of characters needed to display the notes and rests in proper
time. Assuming standard 4/4 time, a simple song with only quarter notes would have
four characters (per string) per measure. An average rock song with only eighth notes
would have eight characters per measure. A complex song with a funky sixteenth note
rhythm would need sixteen notes per measure.

Fret positions are represented by one character. This allows each measure to be
written in proper time and with the minimum number of characters per measure, making
the tab easy to read. Fret positions are noted as usual except as follows:

t = tenth fret
e = eleventh fret
T = twelfth fret
h = thirteenth fret
f = fourteenth fret
F = fifteenth fret
s = sixteenth fret
S = seventeenth fret
E = eighteenth fret
n = nineteenth fret
v = twentieth fret
w = twenty-first fret
x = twenty-second fret
y = twenty-third fret
z = twenty-fourth fret