Stranglers - Always The Sun Text Guitar Tab

Learn the song with the online tablature player
I'm pretty sure this is it. Is very basic, but very affective.

------------------------------------------------------------------|
-10-10-10-10-10-10-10-8-7-10-10-10-10-10-10-10-8-7--7-5-0--7-5-0--|
---------------------------------------------------------------0--|
------------------------------------------------------------------| X2
------------------------------------------------------------------|
------------------------------------------------------------------|

-9-9-9-9-9-9-7-5--------5-7-5---5--9-9-9-9-9-9-7-5--------5-7-5-----|
----------------5--5-7--------7--------------------5--5-7-------7-5-|
--------------------------------------------------------------------|
--------------------------------------------------------------------|
--------------------------------------------------------------------|
--------------------------------------------------------------------|

-9-9-9-9-9-9-7-5--------5-7---5-7---5-7---5-7----|
-----------------5--5-7-----7-----7-----7-----7--|
-------------------------------------------------|
-------------------------------------------------|  FADE OUT IN CHORUS
-------------------------------------------------|
-------------------------------------------------|