Strokes - Automatic Stop Text Bass Tab

Learn the song with the online tablature player
start at :09
G|----------------------------------||x2
D|44444444------------------333-----||
A|--------66666666-44444444----444--||
E|--------------------------------66||
G|--------------------------------------------------------------------||
D|--------------------------------------------------------------------||
A|-------------------------------------------22222222-4444444444444444||
E|4444444444444444-2222222222222222-44444444--------------------------||
G|----------------------------------||
D|44444444------------------333-----||
A|--------66666666-44444444----444--||
E|--------------------------------66||
G|---------------------------------||
D|44444444-------------------------||
A|--------66666666-4444444444444444||
E|---------------------------------||
G|---------------------------------------------------------------------||x2
D|444---------333-666-111-----111--------------------------------------||
A|---666---444-----------111-----111-------------------2222222222222222||
E|------666-----------------22------22-4444444444444444----------------||
pause
G|----------------------------------||
D|44444444------------------333-----||
A|--------66666666-44444444----444--||
E|--------------------------------66||
G|---------------------------------||
D|44444444-------------------------||
A|--------66666666-4444444444444444||
E|---------------------------------||
G|----------------------------------||x2
D|44444444------------------333-----||
A|--------66666666-44444444----444--||
E|--------------------------------66||
G|--------------------------------------------------------------------||
D|--------------------------------------------------------------------||
A|-------------------------------------------22222222-4444444444444444||
E|4444444444444444-2222222222222222-44444444--------------------------||
G|---------------------------------------------------------------------||x2
D|444---------333-666-111-----111--------------------------------------||
A|---666---444-----------111-----111-------------------2222222222222222||
E|------666-----------------22------22-4444444444444444----------------||