Sunny Day Real Estate - In Circles Chords

Main Riff
Chorus Riff
Chorus Riff
 
No chord
    
Standard guitar tuning:
E
A
D
G
B
E
No capo

Intro

E |--7--7--8--7--7--8--7--7--8--7--3--3--3--3--3--3--3--3--3--|
H |--8--8--8--8--8--8--8--8--8--8--3--3--3--3--3--3--3--3--3--|
G |--0--0--0--0--0--0--0--0--0--0--0--0--0--0--0--0--0--0--0--|
D |--x--x--x--x--x--x--x--x--x--x--0--0--0--0--0--0--0--0--0--|
A |--7--7--7--7--7--7--7--7--7--7--x--x--x--x--x--x--x--x--x--|
E |--------------------------------3--3--3--3--3--3--3--3--3--|

Verse

E |--2--3--3--|
H |--3--3--3--|
G |--0--0--0--|
D |--x--x--0--|
A |--2--3--x--|
E |--------3--|

Chorus

E |--0--0--3--3--|
H |--0--1--3--3--|
G |--0--0--0--0--|
D |--2--2--0--0--|
A |--2--3--x--x--|
E |--0-----3--2--|

Bridge

E |--0--0---0--0---0--0---0--0--|
H |--x--x---8--x---x--x---8--x--|
G |--7--11--7--11--7--11--7--11-|
D |--x--x---0--x---x--x---0--x--|
A |--5--9---x--9---5--9---x--9--|
E |---------7-------------7--9--|
E |--0--0--0--|
H |--x--x--x--|
G |--7--5--4--|
D |--x--x--x--|
A |--5--3--2--|
E |-----------|
Lyrics: Meet Me There In The Blue Where Words Are Not Feeling Remains Sincerity Trust In Me Throw Myself Into Your Door I Go In Circles Running Down In Circles I'm Running Down In Circles Running Down In Circles Running Down Meet Me There In The Blue Where Words Are Not Feeling Remains And I Dream To Heal Your Wounds But I Bleed Myself I Bleed Myself I Go In Circles Running Down In Circles I'm Running Down In Circles Running Down In Circles Running Down Circles In Circles I Go In Circles Running Down In Circles I'm Running Down In Circles Running Down In Circles Running Down

All Content on this page is the property of the copyright owner of the original composition.