Swervedriver - Last Train To Satansville Chords

 
         
         
         
         
         
2
3
3 fr
         
         
         
         
         
X
X
2
4
1
7 fr
         
         
         
         
         
X
1
3
4
2
1
2 fr
         
         
         
         
         
X
X
1
3
4
2
3 fr
         
         
         
         
         
X
3
2
4
1
4 fr
         
         
         
         
         
X
4
3
1
2
X

12 fr
         
         
         
         
         
1
3
4
1
1
1
         
         
         
         
         
3
2
4
3 fr
         
         
         
         
         
1
3
4
2
1
1
         
         
         
         
         
2
1
3
4
3 fr
         
         
         
         
         
X
X
3
2
1
1
5 fr
         
         
         
         
         
X
X
1
3
4
3
7 fr
         
         
         
         
         
X
4
3
1
2
1

10 fr
         
         
         
         
         
X
1
2
3
4
X
10 fr
         
         
         
         
         
X
1
3
3
3
1
12 fr
         
         
         
         
         
3
2
1
1
1
4
         
         
         
         
         
X
3
2
1
3 fr
         
         
         
         
         
X
1
2
3
4
1
8 fr
         
         
         
         
         
1
3
4
2
1
1
3 fr
         
         
         
         
         
X
1
X
3
4
1
5 fr
         
         
         
         
         
3
2
1
1
1
4
10 fr
         
         
         
         
         
X
X
1
3
4
3

12 fr
         
         
         
         
         
X
4
3
1
2
1
3 fr
         
         
         
         
         
X
No chord
    
Standard guitar tuning:
E
A
D
G
B
E
Capo on 2 fret

Intro

Repeat the below pattern once without singing, and then sing the rest of the lines.
     Em                        rep. 5X
E||----0---0---0---0---0---0---0---0-||
B||----0---0---0---0---0---0---0---0-||
G||.---0---0---0---0---0---0---0---0.||
D||.-2---2---2---2---2---2---2---2--.||
A||--2---2---2---2---2---2---2---2---||
E||--0---3---0---3---0---3---0---3---||
1 & 2 & 3 & 4 & 1 & 2 & 3 & 4 & Ooh ooh oo-ooh ooh oo-ooh Ooh oo-ooh Ooh ooh oo-ooh ooh oo-ooh Ooh You

Verse

  G                Em
E|-3---3-3-----------0---0---0---0--|
B|-3---3-3-----------0---0---0---0--|
G|-0---0-0-----------0---0---0---0--|
D|-0---0-0---------2---2---2---2----|
A|-2---2-2---------2---2---2---2----|
E|-3---3-3---------0---3---0---3----|
1 & 2 & 3 & 4 & 1 & 2 & 3 & 4 & look like you’ve been losing sleep said a
   G               Em              G
E|-3---3-3-----------0---0---0---0-3---3-3----------|
B|-3---3-3-----------0---0---0---0-3---3-3----------|
G|-0---0-0-----------0---0---0---0-0---0-0----------|
D|-0---0-0---------2---2---2---2---0---0-0----------|
A|-2---2-2---------2---2---2---2---2---2-2----------|
E|-3---3-3---------0---3---0---3---3---3-3----------|
1 & 2 & 3 & 4 & 1 & 2 & 3 & 4 & 1 & 2 & 3 & 4 & stranger on a train I fixed him with an
   Em              C               Em
E|---0---0---0---0-0---0-0---0-0-0---0---0---0---0--|
B|---0---0---0---0-1---1-1---1-1-1---0---0---0---0--|
G|---0---0---0---0-0---0-0---0-0-0---0---0---0---0--|
D|-2---3---2---2---2---2-2---2-2-2-2---2---2---2----|
A|-2---2---2---2---3---3-3---3-3-3-2---2---2---2----|
E|-0---3---0---3-------------------0---3---0---3----|
1 & 2 & 3 & 4 & 1 & 2 & 3 & 4 & 1 & 2 & 3 & 4 & ice cold stare and said I’ve been having those dreams again Every verse is basically played the same, but sometimes Adam throws in a C chord for the two beats of the 1st or 2nd line of each verse, instead of just the Em riff. He also an extra bar of the Em riff after some of the verses. I have indicated this below. In Gone dream there's this Emgirl I love And we Gdance every wakin' EmbreathC And in the Gother they've thrown me Emin a cell

C Em X2

And they're tryin' me for her death I'm Gonly young and Emyoung in love As I Ghold that girl Emtoday C But I'm Gold and tired and Emin the cell

C Em X2

And I've nigh on withered away

Bridge

Play the intro again, but skip the first time through, so you only play it 4X, all with “Ooh”s. Note that the first words of the next verse below (“Y’see my”) fall on the last and a half of the bridge.

Verse

Y'see my Gbaby' gone aEmway too long And I'm Gchokin' back the Emtears C DiGsheveled star in a Emburnt out bar And I'm Ctalkin' in my Emdrink She Gpromised me the Emworld and more How Gcould she do this Emto me?C And Gnow mine's tumblin' Emdown around But at Cleast my eyes can Emsee, And those C C* Em X2 stars in the sky are for me So Gas this fagged-out Emtinsel town Waves Gso-long to the Emsun C I Glay here calmly Emon my bed And the Ctrigger of my Emgun And Gshould that no good Emwoman show up GDancin' from a EmdreamC I'll Gsqueeze it twice and Emnot think twice And Crelish every Emscream

Outro

On the last line of the last verse, Adam sings “scream” an octave higher, and moves into the falsetto “Ooh”s like in the Intro. “Scream” replaces the first “Ooh ooh”, so it like this: 1 & 2 & 3 & 4 & 1 & 2 & 3 & 4 & Scre- eam oo-ooh ooh oo-ooh Ooh oo-ooh Ooh ooh oo-ooh ooh oo-ooh Ooh ooh ooh ooh ooh Gradually slow down the last few bars until the end.

All Content on this page is the property of the copyright owner of the original composition.