Systematic - Dopesick Bass Text Guitar Tab

Learn song with the online tabulature player
Band- Systematic
Song- Dopesick

tuning e a d g
INTRO
G----------------------------------|
D----------------------------------|
A-6-8-6-----6-5-6-6-8-6-----6-5-6--|
E--------8---------------8---------|
CHORUS
G----------------------------------------|
D----------------------------------------|
A-6-8-6---6-5-5-6-8-6-------6-5-5-6-5-5--|
E-------8---------------8----------------|
END OF SONG
G----------------------------------------------------|
D----------4-6-6-6---4-6-6--4-6-6-6-4H-6-6-6---------|
A----------------------------------------------------|
E-4-6-8--------------------------------------------0-|