Takacha - Movin Chords

 
         
         
         
         
         
X
3
2
1
3 fr
         
         
         
         
         
X
1
2
3
4
1
8 fr
         
         
         
         
         
1
3
4
2
1
1
3 fr
         
         
         
         
         
X
1
X
3
4
1
5 fr
         
         
         
         
         
3
2
1
1
1
4
10 fr
         
         
         
         
         
X
X
1
3
4
3

12 fr
         
         
         
         
         
X
4
3
1
2
1
3 fr
         
         
         
         
         
X
         
         
         
         
         
2
3
3 fr
         
         
         
         
         
X
X
2
4
1
7 fr
         
         
         
         
         
X
1
3
4
2
1
2 fr
         
         
         
         
         
X
X
1
3
4
2
3 fr
         
         
         
         
         
X
3
2
4
1
4 fr
         
         
         
         
         
X
4
3
1
2
X

12 fr
         
         
         
         
         
1
3
4
1
1
1
         
         
         
         
         
X
2
3
1
5 fr
         
         
         
         
         
1
3
4
1
1
1
5 fr
         
         
         
         
         
X
X
1
1
1
8 fr
         
         
         
         
         
X
3
2
4
1
2 fr
         
         
         
         
         
X
1
4
4
4
7 fr
         
         
         
         
         
X
1
3
4
2

9 fr
         
         
         
         
         
X
4
3
1
2
X
12 fr
         
         
         
         
         
X
1
3
4
2
1
5 fr
         
         
         
         
         
X
         
         
         
         
         
1
3
4
2
1
1
5 fr
         
         
         
         
         
X
4
3
1
2
1
3 fr
         
         
         
         
         
X
X
1
2
4
3
         
         
         
         
         
X
X
3
2
1
1
8 fr
         
         
         
         
         
X
1
3
3
3
1
10 fr
         
         
         
         
         
4
3
1
1
1
X

10 fr
         
         
         
         
         
3
2
1
1
1
4
No chord
    
Standard guitar tuning:
E
A
D
G
B
E
No capo
Chords are C, Em, Am, F, G or G Power Chord  (Whatever G you're
        e--0--0---0---1--3----3---|           ok with. ya know.
        B--1--0---1---1--0----3---|           I'm usin' a G power chord.)
        G--0--0---2---2--0----4---|
        D--2--2---2---3--0----5---|
        A--3--2---0---3--2----5---|
        E-----0-------1--3----3---|
Intro/Chorus (Do this or just strum the chords however you want)

C Em Am

e--0-0--0-00--0--0--0--0----0-0--0-00--0--0--0--0----|
B--1-1--0-03--1--1--1--2----1-1--0-03--1--1--1--2----|
G--0-0--0-00--0h22--0h20h2--0-0--0-00--0h22--0h20h2--|
D--2-2--2-22--2--2--2--2----2-2--2-22--2--2--2--2----|
A--3-3--2-22--0--0--0--0----3-3--2-22--0--0--0--0----|
E-------0-00---------------------0-00----------------|
e--0-0--0-00--0--0--0--0----0-0--0-00--0--0--0--0----|
B--1-1--0-03--1--1--1--2----1-1--0-03--1--1--1--2----|
G--0-0--0-00--0h22--0h20h2--0-0--0-00--0h22--0h20h2--|
D--2-2--2-22--2--2--2--2----2-2--2-22--2--2--2--2----|
A--3-3--2-22--0--0--0--0----3-3--2-22--0--0--0--0----|
E-------0-00---------------------0-00----------------|

Verse

Make your own rhythm)

C Em Am

e--0~--0~--0~--0~--0~--0~--0~--0~--| B--1~--0~--1~--1~--1~--0~--1~--1~--| G--0~--0~--2~--2~--0~--0~--2~--2~--|
D--2~--2~--2~--2~--2~--2~--2~--2~--|
A--3~--2~--0~--0~--2~--2~--0~--0~--|
E------0~--------------0~----------|
e--0~--0~--0~--0~--0~--0~--0~--0~--| B--1~--0~--1~--1~--1~--0~--1~--1~--| G--0~--0~--2~--2~--0~--0~--2~--2~--|
D--2~--2~--2~--2~--2~--2~--2~--2~--|
A--3~--2~--0~--0~--3~--2~--0~--0~--|
E------0~--------------0~----------|

F Em

e--1~-1~-1~-1~-0~-0~-0~-0~--| B--1~-1~-1~-1~-0~-0~-0~-0~--| G--2~-2~-2~-2~-0~-0~-0~-0~--| D--3~-3~-3~-3~-2~-2~-2~-2~--| A--3~-3~-3~-3~-2~-2~-2~-2~--| E--1~-1~-1~-1~-0~-0~-0~-0~--| G Power Chord e--1~-1~-1~-1~-0~-0~-3~-3~--| B--1~-1~-1~-1~-0~-0~-3~-3~--| G--2~-2~-2~-2~-0~-0~-4~-4~--| D--3~-3~-3~-3~-2~-2~-5~-5~--| A--3~-3~-3~-3~-2~-2~-5~-5~--| E--1~-1~-1~-1~-0~-0~-3~-3~--|

C Em Am

e--0~--0~--0~--0~--0~--0~--0~--0~--| B--1~--0~--1~--1~--1~--0~--1~--1~--| G--0~--0~--2~--2~--0~--0~--2~--2~--|
D--2~--2~--2~--2~--2~--2~--2~--2~--|
A--3~--2~--0~--0~--2~--2~--0~--0~--|
E------0~--------------0~----------|
Intro/Chorus

C Em Am

e--0-0--0-00--0--0--0--0----0-0--0-00--0--0--0--0----|
B--1-1--0-03--1--1--1--2----1-1--0-03--1--1--1--2----|
G--0-0--0-00--0h22--0h20h2--0-0--0-00--0h22--0h20h2--|
D--2-2--2-22--2--2--2--2----2-2--2-22--2--2--2--2----|
A--3-3--2-22--0--0--0--0----3-3--2-22--0--0--0--0----|
E-------0-00---------------------0-00----------------|
e--0-0--0-00--0--0--0--0----0-0--0-00--0--0--0--0----|
B--1-1--0-03--1--1--1--2----1-1--0-03--1--1--1--2----|
G--0-0--0-00--0h22--0h20h2--0-0--0-00--0h22--0h20h2--|
D--2-2--2-22--2--2--2--2----2-2--2-22--2--2--2--2----|
A--3-3--2-22--0--0--0--0----3-3--2-22--0--0--0--0----|
E-------0-00---------------------0-00----------------|
Pre-Verse e--C0~--Em0~--Am0~--0~--0~--0~--0~--0~--| B--1~--0~--1~--1~--1~--0~--1~--1~--| G--0~--0~--2~--2~--0~--0~--2~--2~--|
D--2~--2~--2~--2~--2~--2~--2~--2~--|
A--3~--2~--0~--0~--2~--2~--0~--0~--|
E------0~--------------0~----------|

Verse 2

C Em Am

e--0~--0~--0~--0~--0~--0~--0~--0~--| B--1~--0~--1~--1~--1~--0~--1~--1~--| G--0~--0~--2~--2~--0~--0~--2~--2~--|
D--2~--2~--2~--2~--2~--2~--2~--2~--|
A--3~--2~--0~--0~--2~--2~--0~--0~--|
E------0~--------------0~----------|
e--0~--0~--0~--0~--0~--0~--0~--0~--| B--1~--0~--1~--1~--1~--0~--1~--1~--| G--0~--0~--2~--2~--0~--0~--2~--2~--|
D--2~--2~--2~--2~--2~--2~--2~--2~--|
A--3~--2~--0~--0~--3~--2~--0~--0~--|
E------0~--------------0~----------|

F Em

e--1~-1~-1~-1~-0~-0~-0~-0~--| B--1~-1~-1~-1~-0~-0~-0~-0~--| G--2~-2~-2~-2~-0~-0~-0~-0~--| D--3~-3~-3~-3~-2~-2~-2~-2~--| A--3~-3~-3~-3~-2~-2~-2~-2~--| E--1~-1~-1~-1~-0~-0~-0~-0~--| G Power Chord e--1~-1~-1~-1~-0~-0~-3~-3~--| B--1~-1~-1~-1~-0~-0~-3~-3~--| G--2~-2~-2~-2~-0~-0~-4~-4~--| D--3~-3~-3~-3~-2~-2~-5~-5~--| A--3~-3~-3~-3~-2~-2~-5~-5~--| E--1~-1~-1~-1~-0~-0~-3~-3~--|

C Em Am

e--0~--0~--0~--0~--0~--0~--0~--0~--| B--1~--0~--1~--1~--1~--0~--1~--1~--| G--0~--0~--2~--2~--0~--0~--2~--2~--|
D--2~--2~--2~--2~--2~--2~--2~--2~--|
A--3~--2~--0~--0~--2~--2~--0~--0~--|
E------0~--------------0~----------|
Intro/Chorus

C Em Am

e--0-0--0-00--0--0--0--0----0-0--0-00--0--0--0--0----|
B--1-1--0-03--1--1--1--2----1-1--0-03--1--1--1--2----|
G--0-0--0-00--0h22--0h20h2--0-0--0-00--0h22--0h20h2--|
D--2-2--2-22--2--2--2--2----2-2--2-22--2--2--2--2----|
A--3-3--2-22--0--0--0--0----3-3--2-22--0--0--0--0----|
E-------0-00---------------------0-00----------------|
e--0-0--0-00--0--0--0--0----0-0--0-00--0--0--0--0----|
B--1-1--0-03--1--1--1--2----1-1--0-03--1--1--1--2----|
G--0-0--0-00--0h22--0h20h2--0-0--0-00--0h22--0h20h2--|
D--2-2--2-22--2--2--2--2----2-2--2-22--2--2--2--2----|
A--3-3--2-22--0--0--0--0----3-3--2-22--0--0--0--0----|
E-------0-00---------------------0-00----------------|
Pre-Verse

C Em Am

e--0~--0~--0~--0~--0~--0~--0~--0~--| B--1~--0~--1~--1~--1~--0~--1~--1~--| G--0~--0~--2~--2~--0~--0~--2~--2~--|
D--2~--2~--2~--2~--2~--2~--2~--2~--|
A--3~--2~--0~--0~--2~--2~--0~--0~--|
E------0~--------------0~----------|

Verse 3

C Em Am

e--0~--0~--0~--0~--0~--0~--0~--0~--| B--1~--0~--1~--1~--1~--0~--1~--1~--| G--0~--0~--2~--2~--0~--0~--2~--2~--|
D--2~--2~--2~--2~--2~--2~--2~--2~--|
A--3~--2~--0~--0~--3~--2~--0~--0~--|
E------0~--------------0~----------|

F

e--1~-1~-1~-1~-0~-0~-0~-0~--| B--1~-1~-1~-1~-0~-0~-0~-0~--| G--2~-2~-2~-2~-0~-0~-0~-0~--| D--3~-3~-3~-3~-2~-2~-2~-2~--| A--3~-3~-3~-3~-2~-2~-2~-2~--| E--1~-1~-1~-1~-0~-0~-0~-0~--| e--1~-1~-1~-1~-0~0~0~0~0~0~0~0~3~3~3~3~3~--| B--1~-1~-1~-1~-0~0~0~0~0~0~0~0~3~3~3~3~3~--| G--2~-2~-2~-2~-0~0~0~0~0~0~0~0~4~4~4~4~4~--| D--3~-3~-3~-3~-2~2~2~2~2~2~2~2~5~5~5~5~5~--| A--3~-3~-3~-3~-2~2~2~2~2~2~2~2~5~5~5~5~5~--| E--1~-1~-1~-1~-0~0~0~0~0~0~0~0~3~3~3~3~3~--| Intro/Chorus

C Em Am

e--0-0--0-00--0--0--0--0----0-0--0-00--0--0--0--0----|
B--1-1--0-03--1--1--1--2----1-1--0-03--1--1--1--2----|
G--0-0--0-00--0h22--0h20h2--0-0--0-00--0h22--0h20h2--|
D--2-2--2-22--2--2--2--2----2-2--2-22--2--2--2--2----|
A--3-3--2-22--0--0--0--0----3-3--2-22--0--0--0--0----|
E-------0-00---------------------0-00----------------|
e--0-0--0-00--0--0--0--0----0-0--0-00--0--0--0--0----|
B--1-1--0-03--1--1--1--2----1-1--0-03--1--1--1--2----|
G--0-0--0-00--0h22--0h20h2--0-0--0-00--0h22--0h20h2--|
D--2-2--2-22--2--2--2--2----2-2--2-22--2--2--2--2----|
A--3-3--2-22--0--0--0--0----3-3--2-22--0--0--0--0----|
E-------0-00---------------------0-00----------------|
e--0-0--0-00--0--0--0--0----0-0--0-00--0--0--0--0----|
B--1-1--0-03--1--1--1--2----1-1--0-03--1--1--1--2----|
G--0-0--0-00--0h22--0h20h2--0-0--0-00--0h22--0h20h2--|
D--2-2--2-22--2--2--2--2----2-2--2-22--2--2--2--2----|
A--3-3--2-22--0--0--0--0----3-3--2-22--0--0--0--0----|
E-------0-00---------------------0-00----------------|
e--0-0--0-00--0--0--0--0----0-0--0-00--0--0--0--0----|
B--1-1--0-03--1--1--1--2----1-1--0-03--1--1--1--2----|
G--0-0--0-00--0h22--0h20h2--0-0--0-00--0h22--0h20h2--|
D--2-2--2-22--2--2--2--2----2-2--2-22--2--2--2--2----|
A--3-3--2-22--0--0--0--0----3-3--2-22--0--0--0--0----|
E-------0-00---------------------0-00----------------|
Basically It's... Intro/Chorus

Verse 1

Intro/Chorus Pre-Verse

Verse 2

Intro/Chorus Pre-Verse

Verse 3

Intro/Chorus That's all I got. Enjoy.
9/11/12

All Content on this page is the property of the copyright owner of the original composition.