Talking Heads - Artists Only Text Bass Tab

Learn the song with the online tablature player
     w  e  H  e  q  q  q  q  q  q  q  q
||----------------------------------------||----------------------------
||*--------------------------------------*||----------------------------
||*--7--6--7--6--7--6--5--6--7--6--5--6--*||----------------------------
||----------------------------------------||----------------------------
     Part I

     e  e  q  e  e  q  e  e  q  q  e  e
||----------------------------------------||----------------------------
||*--------------------------------------*||----------------------------
||*--0--7--7--0--6--6--0--5--5--5--6--7--*||----------------------------
||----------------------------------------||----------------------------
     Part II

     e  Q  e  e  q  e  Q  e  e   q
||---------7--------------7----------||---------------------------------
||*-----------8--5-----------10--5--*||---------------------------------
||*--5--7-----------7--9------------*||---------------------------------
||-----------------------------------||---------------------------------
     Part III

     q  q  q  q  q  q  e  e  q
||-------------------------------||-------------------------------------
||*-----------------------------*||-------------------------------------
||*--7--7--7--7--7--7--5--6--7--*||-------------------------------------
||-------------------------------||-------------------------------------
     Part IV

Order: Part I x 4
Part II x 4
Part III x 4
Part IV x 8
Part III x 4
Part I x 4
Part IV x 8*
Part II x 4
Part III x 4
Part I x 4+

This is roughly correct, but I have a terrible ear for music, so
apologies if it annoys you.