Teddy Geiger - Try Too Hard Chords

 
No chord
    
Standard guitar tuning:
E
A
D
G
B
E
No capo
   Intro
e|---0---0---0-----0---0---0--0--0--0--------------------------|
B|---6---6---0-----0---0---0--0--0--0--------------------------|
G|---6---6---7-----6---4---4--4--4--4--------------------------| x2
D|---6---8---7-----7---5---5--5--5--5--------------------------|
A|---8---8---x-----7---5---5--5--5--5--------------------------|
E|---9---8---7-----5---3---2--3--2--3--------------------------|
  Well love life one speaks for the other one here
e|---0-------0---------0-----------0----------0-------0----0--0--0--|
B|---6-------6---------0-----------0----------0-------0----0--0--0--|
G|---6-------6---------7-----------6----------4-------4----4--4--4--|
D|---6-------8---------7-----------7----------5-------5----5--5--5--|
A|---8-------8---------x-----------7----------5-------5----5--5--5--|
E|---9-------8---------7-----------5----------3-------2----3--2--3--|
   And love life one speaks for the other one now We'll try to get by
e|---0-------0---------0-----------0----------0-------0----0--0--0--|
B|---6-------6---------0-----------0----------0-------0----0--0--0--|
G|---6-------6---------7-----------6----------4-------4----4--4--4--|
D|---6-------8---------7-----------7----------5-------5----5--5--5--|
A|---8-------8---------x-----------7----------5-------5----5--5--5--|
E|---9-------8---------7-----------5----------3-------2----3--2--3--|
  Did anyone try too hard Well I guess I did I guess I did alright
e|---2--------------------------3---------------------------------2---|
B|---3--------------------------3---------------------------------3---|
G|---2--------------------------2---------------------------------2---|
D|---0--------------------------0---------------------------------0---|
A|---x--------------------------0---------------------------------x---|
E|---x--------------------------3---------------------------------x---|
  Well she'll break my heart
e|---2----------------------3-2-3-2--|
B|---3----------------------3-3-3-3--|
G|---2----------------------0-0-0-0--|
D|---0----------------------0-0-0-0--|
A|---x----------------------0-0-0-0--|
E|---x----------------------2-2-2-2--|
  Did anyone try too hard Well I guess I did I guess I did alright
e|---2--------------------------3---------------------------------2---|
B|---3--------------------------3---------------------------------3---|
G|---2--------------------------2---------------------------------2---|
D|---0--------------------------0---------------------------------0---|
A|---x--------------------------0---------------------------------x---|
E|---x--------------------------3---------------------------------x---|
   She'll break my heart
e|---2----------------------3-2-3-2--|
B|---3----------------------3-3-3-3--|
G|---2----------------------0-0-0-0--|
D|---0----------------------0-0-0-0--|
A|---x----------------------0-0-0-0--|
E|---x----------------------2-2-2-2--|
  Cause ever since the minute I saw your face
e|---0-------0---------0-----------0----------0-------0----0--0--0--|
B|---6-------6---------0-----------0----------0-------0----0--0--0--|
G|---6-------6---------7-----------6----------4-------4----4--4--4--|
D|---6-------8---------7-----------7----------5-------5----5--5--5--|
A|---8-------8---------x-----------7----------5-------5----5--5--5--|
E|---9-------8---------7-----------5----------3-------2----3--2--3--|
  Well I knew I wanted to be in that place next to you
e|---0-------0---------0-----------0----------0-------0----0--0--0--|
B|---6-------6---------0-----------0----------0-------0----0--0--0--|
G|---6-------6---------7-----------6----------4-------4----4--4--4--|
D|---6-------8---------7-----------7----------5-------5----5--5--5--|
A|---8-------8---------x-----------7----------5-------5----5--5--5--|
E|---9-------8---------7-----------5----------3-------2----3--2--3--|
   And now I'll spend my whole life trying
e|---0-------0---------0-----------0----------0-------0----0--0--0--|
B|---6-------6---------0-----------0----------0-------0----0--0--0--|
G|---6-------6---------7-----------6----------4-------4----4--4--4--|
D|---6-------8---------7-----------7----------5-------5----5--5--5--|
A|---8-------8---------x-----------7----------5-------5----5--5--5--|
E|---9-------8---------7-----------5----------3-------2----3--2--3--|
  To be the one that's inside your arms And I'll try to give back
e|---0-------0---------0-----------0----------0-------0----0--0--0--|
B|---6-------6---------0-----------0----------0-------0----0--0--0--|
G|---6-------6---------7-----------6----------4-------4----4--4--4--|
D|---6-------8---------7-----------7----------5-------5----5--5--5--|
A|---8-------8---------x-----------7----------5-------5----5--5--5--|
E|---9-------8---------7-----------5----------3-------2----3--2--3--|
  Did anyone try too hard Well I guess I did I guess I did alright
e|---2--------------------------3---------------------------------2---|
B|---3--------------------------3---------------------------------3---|
G|---2--------------------------2---------------------------------2---|
D|---0--------------------------0---------------------------------0---|
A|---x--------------------------0---------------------------------x---|
E|---x--------------------------3---------------------------------x---|
   She'll break my heart
e|---2----------------------3-2-3-2--|
B|---3----------------------3-3-3-3--|
G|---2----------------------0-0-0-0--|
D|---0----------------------0-0-0-0--|
A|---x----------------------0-0-0-0--|
E|---x----------------------2-2-2-2--|
  Did anyone try too hard Well I guess I did I guess I did alright
e|---2--------------------------3---------------------------------2---|
B|---3--------------------------3---------------------------------3---|
G|---2--------------------------2---------------------------------2---|
D|---0--------------------------0---------------------------------0---|
A|---x--------------------------0---------------------------------x---|
E|---x--------------------------3---------------------------------x---|
  She'll break my heart
e|---2----------------------3-2-3-2--|
B|---3----------------------3-3-3-3--|
G|---2----------------------0-0-0-0--|
D|---0----------------------0-0-0-0--|
A|---x----------------------0-0-0-0--|
E|---x----------------------2-2-2-2--|
   She'll break my heart
e|---2----------------------3-2-3-2--|
B|---3----------------------3-3-3-3--|
G|---2----------------------0-0-0-0--|
D|---0----------------------0-0-0-0--|
A|---x----------------------0-0-0-0--|
E|---x----------------------2-2-2-2--|
   Well isn't it alright Why can't it be Just this once alright
e|---2--------------------------3---------------------------------2---|
B|---3--------------------------3---------------------------------3---|
G|---2--------------------------2---------------------------------2---|
D|---0--------------------------0---------------------------------0---|
A|---x--------------------------0---------------------------------x---|
E|---x--------------------------3---------------------------------x---|
   It will be you and me
e|---2----------------------3-2-3-2--|
B|---3----------------------3-3-3-3--|
G|---2----------------------0-0-0-0--|
D|---0----------------------0-0-0-0--|
A|---x----------------------0-0-0-0--|
E|---x----------------------2-2-2-2--|
  Did anyone try too hard Well I guess I did I guess I did alright
e|---2--------------------------3---------------------------------2---|
B|---3--------------------------3---------------------------------3---|
G|---2--------------------------2---------------------------------2---|
D|---0--------------------------0---------------------------------0---|
A|---x--------------------------0---------------------------------x---|
E|---x--------------------------3---------------------------------x---|
  She'll break my heart
e|---2----------------------3-2-3-2--|
B|---3----------------------3-3-3-3--|
G|---2----------------------0-0-0-0--|
D|---0----------------------0-0-0-0--|
A|---x----------------------0-0-0-0--|
E|---x----------------------2-2-2-2--|
  Did anyone try too hard Well I guess I did I guess I did alright
e|---2--------------------------3---------------------------------2---|
B|---3--------------------------3---------------------------------3---|
G|---2--------------------------2---------------------------------2---|
D|---0--------------------------0---------------------------------0---|
A|---x--------------------------0---------------------------------x---|
E|---x--------------------------3---------------------------------x---|
  She'll break my heart
e|---2----------------------3-2-3-2--|
B|---3----------------------3-3-3-3--|
G|---2----------------------0-0-0-0--|
D|---0----------------------0-0-0-0--|
A|---x----------------------0-0-0-0--|
E|---x----------------------2-2-2-2--|
  She'll break my heart
e|---2----------------------3-2-3-2--|
B|---3----------------------3-3-3-3--|
G|---2----------------------0-0-0-0--|
D|---0----------------------0-0-0-0--|
A|---x----------------------0-0-0-0--|
E|---x----------------------2-2-2-2--|

All Content on this page is the property of the copyright owner of the original composition.