Teenage Bottlerocket - Dont Want To Go Text Guitar Tab

Learn the song with the online tablature player
                             Don't Want To Go - Teenage Bottlerocket

Verse/Chorus
e|--------------------------------------------------------------------------|
B|--------------------------------------------------------------------------|
G|----9--10-----------------------------------------------------------------|
D|-9--9--10-----------------------------------------------------------------|
A|-9--7--9------------------------------------------------------------------|
E|-7------------------------------------------------------------------------|
I dont wanna... go-o-o-o....

Bridge 1st time
e|--------------------------------------------------------------------------|
B|--------------------------------------------------------------------------|
G|--------9--10--------9----------------------------------------------------|
D|--6--4--9--10--6--4--9----------------------------------------------------|
A|--6--4--7--9---6--4--7----------------------------------------------------|
E|--4--2---------4--2-------------------------------------------------------|

Bridge 2nd time
e|--------------------------------------------------------------------------|
B|--------------------------------------------------------------------------|
G|--------9--10--------9----------------------------------------------------|
D|--6--4--9--10--6--4--9--10------------------------------------------------|
A|--6--4--7--9---6--4--7--10------------------------------------------------|
E|--4--2---------4--2-----9-------------------------------------------------|

| /   slide up
| \   slide down
| h   hammer-on
| p   pull-off
| ~   vibrato
| +   harmonic
| x   Mute note
| b   Bend
| pb  Pre-bend
| br  Bend release
| pbr Pre-bend release
| brb Bend release bend