Tegan And Sara - Con Chords

Bridge Riff
Encircle me Riff
 
         
         
         
         
         
X
1
2
3
5 fr
         
         
         
         
         
1
3
4
2
1
1
2 fr
         
         
         
         
         
X
1
1
1
4
         
         
         
         
         
X
X
1
2
2 fr
         
         
         
         
         
3
2
1
1
1
4
7 fr
         
         
         
         
         
X
X
1
3
4
3

9 fr
         
         
         
         
         
X
4
3
1
2
1
12 fr
         
         
         
         
         
X
1
3
3
3
1
         
         
         
         
         
X
X
1
3
2
2 fr
         
         
         
         
         
X
4
3
1
2
1
5 fr
         
         
         
         
         
X
1
2
3
4
1
5 fr
         
         
         
         
         
X
1
4
4
4
X
7 fr
         
         
         
         
         
4
3
1
1
1
X
7 fr
         
         
         
         
         
3
2
1
1
1
4

10 fr
         
         
         
         
         
1
3
4
2
1
1
12 fr
         
         
         
         
         
X
X
1
3
4
3
5 fr
         
         
         
         
         
X
X
         
         
         
         
         
2
3
1
4 fr
         
         
         
         
         
X
4
3
1
2
1
7 fr
         
         
         
         
         
X
1
4
4
4
X
2 fr
         
         
         
         
         
X
X
1
2
4
3
4 fr
         
         
         
         
         
4
3
1
2
1
7 fr
         
         
         
         
         
X
1
3
3
3
1

9 fr
         
         
         
         
         
4
3
1
1
1
X
9 fr
         
         
         
         
         
3
2
1
1
1
4
12 fr
         
         
         
         
         
1
3
4
2
1
1
4 fr
         
         
         
         
         
X

Cm

variations
4 fr
         
         
         
         
         
X
1
3
4
2
1
9 fr
         
         
         
         
         
1
3
4
1
1
1
         
         
         
         
         
X
4
2
1
X
X
         
         
         
         
         
X
4
3
1
2
X
4 fr
         
         
         
         
         
X
1
X
X
2
1
11 fr
         
         
         
         
         
X
X
1
3
4
2

4 fr
         
         
         
         
         
X
X

A

variations
4 fr
         
         
         
         
         
1
3
4
2
1
1
4 fr
         
         
         
         
         
X
X
3
2
1
1
6 fr
         
         
         
         
         
X
X
1
2
4
3
         
         
         
         
         
3
2
1
1
1
4
8 fr
         
         
         
         
         
X
4
3
1
2
1
11 fr
         
         
         
         
         
X
1
2
3
4
X

11 fr
         
         
         
         
         
X
1
3
3
3
1

Fm

variations
         
         
         
         
         
1
3
4
1
1
1
4 fr
         
         
         
         
         
X
X
1
3
4
2
         
         
         
         
         
X
X
3
1
1
1
9 fr
         
         
         
         
         
X
1
3
4
2
1
6 fr
         
         
         
         
         
X
4
3
1
2
X
         
         
         
         
         
1
3
4
1
1
1
         
         
         
         
         
X
X
3
1
1
1
3 fr
         
         
         
         
         
X
X
1
3
4
2
8 fr
         
         
         
         
         
X
1
3
4
2
1
5 fr
         
         
         
         
         
X
4
3
1
2
X
3 fr
         
         
         
         
         
X
1
3
4
2
1
8 fr
         
         
         
         
         
1
3
4
1
1
1
         
         
         
         
         
X
3
1
X
X
         
         
         
         
         
X
4
1
2
X
8 fr
         
         
         
         
         
X
X
3
1
1
1
10 fr
         
         
         
         
         
X
X
1
3
4
2

12 fr
         
         
         
         
         
X
4
3
1
2
X

C

variations
4 fr
         
         
         
         
         
X
1
2
3
4
1
         
         
         
         
         
X
4
3
1
2
1
4 fr
         
         
         
         
         
X
1
4
4
4
X
6 fr
         
         
         
         
         
4
3
1
1
1
X
6 fr
         
         
         
         
         
3
2
1
1
1
4
9 fr
         
         
         
         
         
1
3
4
2
1
1

11 fr
         
         
         
         
         
X
X
1
3
4
3

E

variations
3 fr
         
         
         
         
         
X
4
3
1
2
1
6 fr
         
         
         
         
         
X
1
2
3
4
1
         
         
         
         
         
X
X
1
2
4
3
3 fr
         
         
         
         
         
X
4
3
1
2
X
8 fr
         
         
         
         
         
4
3
1
1
1
X
8 fr
         
         
         
         
         
3
2
1
1
1
4

11 fr
         
         
         
         
         
1
3
4
2
1
1
         
         
         
         
         
X
3
2
1
3 fr
         
         
         
         
         
X
1
2
3
4
1
8 fr
         
         
         
         
         
1
3
4
2
1
1
3 fr
         
         
         
         
         
X
1
X
3
4
1
5 fr
         
         
         
         
         
3
2
1
1
1
4
10 fr
         
         
         
         
         
X
X
1
3
4
3

12 fr
         
         
         
         
         
X
4
3
1
2
1
3 fr
         
         
         
         
         
X

Bm

variations
         
         
         
         
         
X
1
3
4
2
1
6 fr
         
         
         
         
         
1
3
4
1
1
1
         
         
         
         
         
X
1
3
4
2
X
6 fr
         
         
         
         
         
X
X
3
1
1
1
8 fr
         
         
         
         
         
X
X
1
3
4
2
10 fr
         
         
         
         
         
X
4
3
1
2
X

E/G

variations
         
         
         
         
         
1
X
X
2
4
3
3 fr
         
         
         
         
         
X
X
3
1
2
1
8 fr
         
         
         
         
         
X
3
1
1
1
4
3 fr
         
         
         
         
         
1
4
3
1
2
1
         
         
         
         
         
3
2
4
3 fr
         
         
         
         
         
1
3
4
2
1
1
         
         
         
         
         
2
1
3
4
3 fr
         
         
         
         
         
X
X
3
2
1
1
5 fr
         
         
         
         
         
X
X
1
3
4
3
7 fr
         
         
         
         
         
X
4
3
1
2
1

10 fr
         
         
         
         
         
X
1
2
3
4
X
10 fr
         
         
         
         
         
X
1
3
3
3
1
12 fr
         
         
         
         
         
3
2
1
1
1
4
         
         
         
         
         
1
3
4
2
1
1
5 fr
         
         
         
         
         
X
4
3
1
2
1
3 fr
         
         
         
         
         
X
X
1
2
4
3
         
         
         
         
         
X
X
3
2
1
1
8 fr
         
         
         
         
         
X
1
3
3
3
1
10 fr
         
         
         
         
         
4
3
1
1
1
X

10 fr
         
         
         
         
         
3
2
1
1
1
4

B

variations
         
         
         
         
         
X
1
2
3
4
1
6 fr
         
         
         
         
         
1
3
4
2
1
1
         
         
         
         
         
X
1
4
4
4
X
         
         
         
         
         
X
1
X
3
4
1
3 fr
         
         
         
         
         
3
2
1
1
1
4
8 fr
         
         
         
         
         
X
X
1
3
4
3

10 fr
         
         
         
         
         
X
4
3
1
2
1
         
         
         
         
         
X
X
2
3
1
5 fr
         
         
         
         
         
X
1
3
4
2
1
10 fr
         
         
         
         
         
X
X
1
1
1
5 fr
         
         
         
         
         
X
X
3
2
1
2 fr
         
         
         
         
         
X
4
3
1
2
X
10 fr
         
         
         
         
         
1
3
4
1
1
1

12 fr
         
         
         
         
         
X
X
1
3
4
2

A/C

variations
         
         
         
         
         
X
3
1
1
1
X
2 fr
         
         
         
         
         
X
3
1
1
1
4
4 fr
         
         
         
         
         
X
1
4
3
2
X
4 fr
         
         
         
         
         
X
1
X
X
4
4
         
         
         
         
         
X
1
3
4
2
1
7 fr
         
         
         
         
         
1
3
4
1
1
1
         
         
         
         
         
X
1
3
4
2
X
7 fr
         
         
         
         
         
X
X
3
1
1
1
9 fr
         
         
         
         
         
X
X
1
3
4
2
11 fr
         
         
         
         
         
X
4
3
1
2
X

D/C

         
         
         
         
         
X
3
1
2
1
         
         
         
         
         
X
2
4
7 fr
         
         
         
         
         
1
4
3
1
2
1
         
         
         
         
         
X
1
X
X
3
4
         
         
         
         
         
X
1
3
4
2 fr
         
         
         
         
         
X
1
4
3
2
X
         
         
         
         
         
2
3
3 fr
         
         
         
         
         
X
X
2
4
1
7 fr
         
         
         
         
         
X
1
3
4
2
1
2 fr
         
         
         
         
         
X
X
1
3
4
2
3 fr
         
         
         
         
         
X
3
2
4
1
4 fr
         
         
         
         
         
X
4
3
1
2
X

12 fr
         
         
         
         
         
1
3
4
1
1
1

Gadd9

variations
         
         
         
         
         
2
1
3
         
         
         
         
         
2
3
3 fr
         
         
         
         
         
X
X
3
2
1
4
7 fr
         
         
         
         
         
X
3
2
1
4
1
7 fr
         
         
         
         
         
X
3
1
1
4
1
7 fr
         
         
         
         
         
X
4
1
1
2
1

         
         
         
         
         

Cadd9

variations
         
         
         
         
         
X
2
1
3
X
         
         
         
         
         
X
3
1
         
         
         
         
         
X
2
3
8 fr
         
         
         
         
         
X
X
3
2
1
4
         
         
         
         
         
X
         
         
         
         
         
X

C7M9

variations
         
         
         
         
         
X
3
7 fr
         
         
         
         
         
2
1
4
1
3
1
7 fr
         
         
         
         
         
1
3
4
2
1
1
         
         
         
         
         
X
2
1
X
3
         
         
         
         
         
X
1
4
4
4
X
         
         
         
         
         
X
1
3
3
3
1
4 fr
         
         
         
         
         
4
3
1
1
1
X
4 fr
         
         
         
         
         
3
2
1
1
1
4

9 fr
         
         
         
         
         
X
X
1
3
4
3
11 fr
         
         
         
         
         
X
4
3
1
2
1
         
         
         
         
         
X
2
3
1
5 fr
         
         
         
         
         
1
3
4
1
1
1
5 fr
         
         
         
         
         
X
X
1
1
1
8 fr
         
         
         
         
         
X
3
2
4
1
2 fr
         
         
         
         
         
X
1
4
4
4
7 fr
         
         
         
         
         
X
1
3
4
2

9 fr
         
         
         
         
         
X
4
3
1
2
X
12 fr
         
         
         
         
         
X
1
3
4
2
1
5 fr
         
         
         
         
         
X
         
         
         
         
         
1
3
4
X
X
X
3 fr
         
         
         
         
         
X
X
1
3
4
X
8 fr
         
         
         
         
         
X
1
3
4
X
X
         
         
         
         
         
X
X
No chord
    
Standard guitar tuning:
E
A
D
G
B
E
Capo on 2 fret
pages when I was trying to play these songs.  So I compiled them.
   A  E          D
e|--x-----x-----x----------|
B|--x-----x-----x----------|
G|--x-----9-----7----------|
D|--7-----9-----7----------|
A|--7-----7-----5----------|
E|--5-----x-----x----------|
I married in the Asun, (tell me where, tell me where) against the stone of Abuildings Ebuilt beDfore you and I were Aborn. (start again, start again) To my heart, conAfusion Egrows Dagainst. The muscles fought so Along (fought so long) to control against the pull of Aone magEnet to anotherA magEnet to another AmagEnet. ANow we look up in (tell me who, tell me who) to the eyes of Abullies Ebreaking Dbacks. They seem so very Atough. (it's a lie; it's a lie) They seem so very Ascared of Eus. D I look into the Amirror (look into) for evil that just Adoes not Eexist.D I don't see what they Asee. (tell them that; tell them that) Try to control the pull of Aone magEnet to anotheAr magEnet, to anotheAr magEnet,
to anotheAr magEnet to another.

A E Cm Cm A E Fm

e|-x--x--x-----x----x---x--| B|-x--x--x-----x----x---x--| G|-x--x--6-----6----9---11-| D|-7--2--6-----6----9---11-| A|-7--2--4-----4----7---9--|
E|-5—-0--x-----4----x---x--| Verse 1 alternative:
e|-----|      |-----|
B|-----|      |-----|
G|-----|      |-----|
D|---2-|(x8)  |---2-| (x8)
A|-0---|      |-----|
E|-----|      |-0---|
Verses Guitar 2:
e|-----------------------------|
B|-----------------------------|
G|-----------------------------|
D|-----------------------------| (x2)
A|-4-6-7-6-4-0---4-6-7-6-4-0---|
E|---------------------------4-|

Verse 1

AI miss you now, I guess like I Eshould've missed you then. AMy body moves, like curtain waving Ein and out of wind; in and out of windows. AI can't untangle, what I feel and Ewhat would matter most. AI can't close an eye, I can't close an eyelid. ENow there's just no point reaching out for me.

Chorus

In the Cmdark, I'm just no good at giving reCmliefA. In the Cmdark, it won't be easy to find reCmliefA. And I'm not Cmproud that nothing will seem easy CmabouAt me. But I promise Ethis: I won't go my whole Fmlife, telling you I Cmdon't need. But I promise Ethis: I won't go my whole Fmlife, telling you I Cmdon't need.

Verse 2

AI'll tell you now, I guess like I Eshould've told you then. AThe thunder moves, like damn drawers slamEming in my frame, slamming in my framework. AI can't untangle, what I know and what sEhould matter most. AI can't close an eye, I can't close an eyelid. ENow there's just no point reaching out for you.

Chorus

In the Cmdark, I'm just no good at giving relCmief.A In the Cmdark, it won't be easy to find reCmliefA. And I'm not Cmproud that nothing will seem easy CmabouAt me. But I promise Ethis: I won't go my whole Fmlife, telling you I Cmdon't need. But I promise Ethis: I won't go my whole Fmlife, telling you I Cmdon't need. But I promise Ethis: I won't go my whole Fmlife, telling you I Cmdon't need. But I promise Ethis: I won't go my whole Fmlife, telling you I Cmdon't need.

End

e|----------------|
B|----------------|
G|-6-8-9-8-6-4-6--|
D|----------------|
A|----------------|
E|----------------|
Chords used:

Intro

Tegan: Fm-Cm-C-E (x2)
Sara:
e|-----------------------------------|
B|-----------------------------------|
G|-1-1-1-1-1-1-1-0-------------------|
D|-----------------1-----------1-1-1-| (x2)
A|-------------------4-4-4-4-4-------|
E|-----------------------------------|

Verse 1

Fm I listened in CmYes I'm Cguilty of this Eyou should know this Fm I broke down and Cmwrote you Cback before you Ehad a chance to Fm Forget forgotten CmI am Cmoving fast this Egiving notice Fm I have to go CmYes I Cknow the feeling Enow you're leaving

Refrain

Fm Calm Cmdown, I'm Ccalling you to Esay Fm I'm capCmsized, sCtaring on the eEdge of safe Fm Calm Cmdown, I'm Ccalling back to Esay Fm I'm home Cmnow, I'm coming Call around

Chorus

I'm Ecoming aCround Nobody Elikes to but I really like to Ccry Nobody Elikes me Maybe if I Ccry

Interlude

Fm--C#--

Verse 2

Fm Spelled out your Cmname and lists the Creasons Pain of Eheart Don't call me back Fm I iCmmagine you when CI was distant ENon-insistent Fm I follow Cmsuit and laid out Con my back IEmagine that Fm A million Cmhours left to Cthink of you and Ethink of that

C

Interlude

Fm--C#--

Bridge

EnEcircle Fmme, I Cmneed to Abe, taken Cdown

Outro

C Nobody Elikes to but I really like to Ccry Nobody Elikes me Maybe if I Ccry CNobody, CmNobody, BmNobody, ENobody, FmNobody ENobody, FmNobody, E/GNobody, ANobody, BmNobody EnEcircle Fmme, I Cmneed to Abe, taken Cdown

Intro

D||-0--0-0--0-0-0-|
G||-0--0-0--3-3-3-|
Eb|-0--0-0--2-2-2-|
Bb|-2--2-2--0-0-0-| x4
F||-2--2-2--------|
C||---------------|

Verse 1

D||--0---0--|
G||--0---0--|
Eb|--0---0--|
Bb|--2---9--| x2
F||--2--10--|
C||---------|

Chorus

D||-0--0-0--0-0-0-|
G||-0--0-0--3-3-3-|
Eb|-0--0-0--2-2-2-|
Bb|-2--2-2--0-0-0-| x8
F||-2--2-2--------|
C||---------------|
POST-CHORUS:
D||-0--0-0-0--0---0--0--0--0--0--0-|
G||-0--0-0-0--0---0--0--0--0--0--0-|
Eb|-0--0-0-0--0---0--0--0--0--0--0-|
Bb|-2--2-2-4--9---9--9--9--9--9--9-| x4
F||-2--2-2-5-10--10-10-10-10-10-10-|
C||--------------------------------|

Verse 2

D||--0---0--|
G||--0---0--|
Eb|--0---0--|
Bb|--2---9--| x1
F||--2--10--|
C||---------|
D||-0--0-0-0--0---0--0--0--0--0--0-|
G||-0--0-0-0--0---0--0--0--0--0--0-|
Eb|-0--0-0-0--0---0--0--0--0--0--0-|
Bb|-2--2-2-4--9---9--9--9--9--9--9-| x2
F||-2--2-2-5-10--10-10-10-10-10-10-|
C||--------------------------------|
ORDER OF PARTS: 1. Intro 2. Verse 1 3. Chorus 4. Post-Chorus 5. Verse 2 6. Chorus (repeat until end) ARE YOU TEN YEARS AGO? I'm Ataken, I am yours (if you show, you show) I am up and doing circles I'm Gtaken, I am yours (if you go, you go) I am up and doing circles I'm Ftaken, I am yours (if you show, you show) I am up and doing circles I'm Gtaken, I am yours (if you go, you go) I am up and doing circles I collAapse I might stay out longer then I Gleft the light on for you then If you show, you show If you show you Fshow G When I Afeel like this When I get so into myself I lose track of where I'm Ggoing then lose track of how to get going again Feel myself Fslowing down Fell myself turning round Is this Gtaken? When I Afeel like this When I get so sick Of myself, where are you Ggoing then Without me and not knowing then That we’re slowing Fdown You’ve got to turn right around And tell me that I'm taken then GTell me if I'm yours You colAlapse The pressure of this life is so you Gcan't be held accountable if you go, you go if you Fgo you go G when you Aact like this when you get so sick of yourself the whole world falls aGway in sense I feel like I have only missed that I'm Fhere again the feeling that I'm clear again I'm not tGaken When you Aact like this When you get so into yourself I lose sight of Gcommon goals And letting go so I can be All alone FFeel myself going slow Feel myself letting go Not Gtaken Not feeling like I'm yours I'm Ataken, I am yours (if you show, you show) I am up and doing circles I'm Gtaken, I am yours (if you go, you go) I am up and doing circles I'm Ftaken, I am yours (if you show, you show) I am up and doing circles I'm Gtaken, I am yours (if you go, you go) I am up and doing circles I Acollapse This life looks like a sentence Though a Gconstant game of falling short If you know, you know If you know you Fknow G When I Afeel like this When I'm just so sick Of feeling less than perfect Isn't Gright for me I never fight to see if coming clean would get to me I Ffeel myself holding back I feel the pressure It's finally back I'm Gtaken When you Afelt like this When you saw it all come crashing down Subtle but not Gunderground I was there I saw the signs, I saw unfair and so I Fwrite to you through other means I let myself finally feel GTaken, like I was yours I'm Ataken, I am yours (I feel sick) I am up and doing circles I tGaken, I am yours (I feel) I am up and doing circles I'm tFaken, I am yours (I feel sick) I am up and doing circles I tGaken, I am yours (I feel) I am up and doing circles I'm Ataken, I am yours (I feel sick) I am up and doing circles I taGken, I am yours (I feel) I am up and doing circles I'm tFaken, I am yours (I feel sick) I am up and doing circles I tGaken, I am yours (I feel) I am up and doing circles I'm tAaken; I am yours (I feel) I am up and doing circles I'm Gtaken; I am yours (I feel) I am up and doing circles I Fcollapse I collapse
    G
I collapse
e--5-5----3-3---0-0----1-1---|
B----------------------------|
G----------------------------|
D----------------------------|
A----------------------------|
E----------------------------|

F C B

DmBuild a wall of books between us in our Fbed Dmrepeat, repeat the words i know we both sFaid Dmrelax into the need we get so comFfortable Dmremember when i was so strange and lFikeable Fi just want back Cin youBr head F C B Fi just want back Cin youBr head F C B FI'm not unfaithfulC but IB'll stray F C B DmWheBn I get a little scared DmWheBn IDm geBt aDm liBttle scared DmWheBn IDm geBt aDm liBttle DmWhen I jerk away from holding hands withF you DmI know these habits hurt important parts oFf you Dmremember when how sweet and unexplainaFble Dmnothing like this person unloveaFble Fi just want back Cin youBr head F C B Fi just want back Cin youBr head F C B FI'm not unfaithful bCut I'lBl stray F C B DmWheBn IDm geBt aDm liBttle scared DmWheBn IDm geBt aDm liBttle scared DmWheBn IDm geBt aDm liBttle DmRunB, rDmun,B ruDmn B Run Run, run, run Run

Chorus

FChoCrdsB:

D G A A/C G

e|-x----x---x---x---x----x---x-----| B|-x----x---x---x---x----x---x-----|
G|-7-or-x---12--x---6-or-x---x-----|
D|-7----12--12--7---7----11--5-----|
A|-5----12--10--7---4----12--5-----|
E|-x----10--x---5---x----9---3-----|

Verses

D G D A

Chorus

D A/C G A

Bridge

D A/C G A

DI took the Gtrain back, Dback to where I Acame from. DI took it Gall alone, it’s Dbeen so Along, I know. DImagine Gme there: my Dheart asleep with Ano air. DBegging, “GOcean, please, Dhelp me drown these Amemories.” DAll I need to A/Chear is that you’re Gnot mine; You’re Anot mine. DI’m moving Geast, then, Dsomewhere far Aaway from Dthe sight of Gmy hands; the Dsight of me not Amoving. DYou can’t just Ghop a plane and Dcome and visit Ame again. DI claim it’s Gin my head and DI regret Aoffering. DAll I need to A/Chear is that you’re Gnot mine; You’re Anot mine. DAll I want to A/Chear is that you’re Gnot mine; You’re Anot mine. DYou take a second, take a A/Csecond; Take a year, take a Gyear. You took me out and took me Ain and told me all of this and DThen you take a moment, take a A/Cmoment; Take a year, take a Gyear. You help me out, I listen Ain, you taught me all of this and DAll I want to A/Chear is that you’re Gnot mine; You’re Anot mine. DAll I want to A/Chear is that you’re Gnot mine; You’re Anot mine. DAll I need to A/Chear is that you’re Gnot mine; You’re Anot mine. DAll I want to A/Chear is that you’re Gnot mine; You’re Anot mine. SOIL, SOIL
Guitar 2 during prechorus:
e|-----------------------------------|
B|-----------------------------------|
G|-----------------------------------|
D|-0-2-4-2-0----0-2-4-2-0------------|
A|-----------------------(0-2)-------|
E|-----------------------------------|

Verse 1

DOh, and I’m feeling directionless, yes, But that’s Bmto be expected, and I know that best. DIn creeps the morning and another day’s lost You’ve Bmjust written wondering, and I reply fast

Prechorus

DAll you need to Bmsave me. DAll you need to Bmsave me:

Chorus

GCall. And I’ll be curled Bmon the Afloor Hiding out from it Gall And I won’t take Bmany Aother Gcall

Verse 2

DI feel like a fool so I’m going to stop troubling you. BmBuried in my yard; a letter to send to you. And Dif I forget, or God forbid, die too soon, BmHope that you’ll hear me, know that I wrote to you

Prechorus

DAll you need to Bmsay to me. DAll you need to Bmsay to me,

Chorus

Is “GCall.” And I’ll be curled Bmon the Afloor Hiding out from it Gall. And I won’t take Bmany Aother Gcall.
Chords:

C G D D/C G/B A G

e|-x---x---x----x----x---x--x----| B|-x---x---x----x----x---x--x----| G|-x---x---x----x----x---x--12---| D|-10--5---12---12---9---7--12---| A|-10--5---12---12---10--7--10---| E|-8---3---10---9----7---5--x----|
CTell me that you know another way to get it done It’s not Gme, or how I would be, But it’s a Cdifferent situation, a different situationG You lay aDwake in the night just D/Cstaring at the ceiling aGbove Pulling pDieces of it out is such a D/Cwaste of tGime Keep on fDighting to remember this That nD/Cothing is lost in the Gend When you Cburn, G/Bburn, Aburn your life Gdown CGet me to the door, out of bed, on the track, I’m not Gsure of starting over It’s a Cdifferent situation, a different situation.G You Dwake up in the night and D/Crefuse to be afraid of it Gnow Unfolding Dpieces of it faster, don’t you D/Cwaste your tiGme. You’ve been pDlanning to remember this, And nD/Cothing will be lost in the Gend. When you Cburn, G/Bburn, Aburn your life Gdown When you Cburn, G/Bburn, Aburn your life Gdown I Gdrive around the block and I’m not looking to my right I feel the Dglass against my cheek and I can’t see you in the light. I Cbreak my heart around this; Gbreak my heart around this. I Gdrive around the block and I’m not looking to my right I feel the Dglass against my cheek and I can’t see you in the light.
I Cbreak my heart around this; Gbreak my heart around this pCole.
Chords Used:
e|--0--|--0--|-----|-----|-----|-----|-----|
B|--1--|--0--|--0--|--0--|--0--|--0--|--1--|
G|--0--|--0--|--0--|--0--|--0--|--0--|--0--|
D|--2--|--2--|--7--|--0--|--5--|--5--|--0--|
A|--3--|--2--|--5--|--2--|--3--|--2--|--2--|
E|-----|--0--|-----|--3--|-----|-----|--3--|

C Em Gadd9 G Cadd9 Em2 C7M9

Verse i

| C | Em | Gadd9 | Gadd9 | x3

| C | Em | G | G | x2

I felt you in my legs before I ever met you And when I laid beside you for the first time I told you I feel you in my heart and I don't even know you And now we're saying bye, bye, bye Now we're saying bye, bye, bye

Chorus i

Cadd9 | Em2 | C7M9 | C7M9 | x2 I was nineteen, calling

Verse ii

| C | Em | Gadd9 | Gadd9 | x3

| C | Em | G | G | x2

I felt you in my life before I ever thought to Feel the need to lay down beside you and tell you I feel you in my heart and I don't even know you And now we're saying bye, bye, bye Now we're saying bye, bye, bye

Chorus ii

Cadd9 | Em2 | C7M9 | C7M9 | x4 I was nineteen, call me I was nineteen, call me

Bridge

e|-----------------------------------------------------------------|--|
B|-----0-------0-------0-------0-------0-------0-------1-------1---|--|
G|-------0-------0-------0-------0-------0-------0-------0-------0-|--|
D|---9-------9-------7-------7-------0-------0-------2-------2-----|x2|
A|-7-------7-------5-------5-----------------------3-------3-------|--|
E|---------------------------------3-------3-----------------------|--|
e|-----------------------------------------------------------------|--|
B|-----0-------0-------1-------1-------0-------0-------0-------0---|--|
G|-------0-------0-------0-------0-------0-------0-------0-------0-|--|
D|---2-------2-------2-------2-------0-------0-------0-------0-----|x2|
A|-----------------3-------3---------------------------------------|--|
E|-0-------0-----------------------3-------3-------3-------3-------|--|
Flew home, back to where we met Stayed inside I was so upset Cooked up a plan so good except I was all alone, you were all I had Love you, you were all I had Love me, I was yours right?

Chorus iii

Cadd9 | Em2 | C7M9 | C7M9 | x4 I was nineteen, call me I was nineteen, call me These are the chords...fingerpicked
Intro and verse

Em G C D

e--0---------- b--0--------- g--0--0--0--- d--2--0--2--4 a--2--2--3--5 E--0--3--x---

Prechorus

Dish something, G, F C
e--------------
b--------------
g--9-----2----
d-10--9--3--2
a-----10----3

E

Chorus

might be missing a chord)

F C

e------- b--0--0 g--0--0 d--7--2 a--8--3 E-------
The outro is the same as the prechorus. I think...I dunno it's all by ear also I've given you the chordshapes I and I think Sara play...by eye. revisions welcome! LIKE O, LIKE H

Intro

e|--------------------------------|
B|--------------------------------|
D|---0-----2-----2---0-----2------|
D|-----4-----4---------4-----4----| repeat x2
G|-4-----4-----4---4-----4-----4--|
E|--------------------------------|
           x4                               x2
e|---------|--------------------------------|
B|---------|--------------------------------|
D|---------|---0-----2-----2---0-----2------|
D|---0---0-|-----4-----4---------4-----4----| repeat all x2
G|-0---0---|-4-----4-----4---4-----4-----4--|
E|---------|--------------------------------|
e|-----------------|
B|-----------------|
D|-----------------|
D|---4---4---4---4-| repeat x6
G|-4---4---0---0---|
E|-----------------|
                  B
e|-------------------|------------------|
B|-------------------|------------------|
D|-------------------|------------------|
D|-12-----12-9-----9-|---4---7---2---2--| x4
G|----0-0------0-0---|-4---7---2---2----|
E|-------------------|------------------|
e|--------------------|
B|--------------------|
D|--------------------|
D|--12-----12-9-----9-| x4
G|-----0-0------0-0---|
E|--------------------|

E

Ok, my friends, ENJOY!!!!! CHORDS:
     Am    F5   C
e ----0----0----0-----|
B ----1----1----1-----|
G ----2----2----0-----|
D ----2----3----2-----|
A ----0----3----3-----|
E ----X----X----X-----|
INTRO/VERSE 1: (The riff in F5 can be played in several ways. I just wrote down one that I liked, but can strum any string as long as it follows the same chord and sounds good.)
   Am                           F5
  “Dark...”                    “You can’t come soon enough...”
e --------------------------------------0-------------0---------|
B ----------------------------------------1-------------1-------|
G ------------------------------------------2-------------2-----|
D ----2-----2-----2-----2---2-------3-------------3---------3---|
A -0-----0-----0-----0-----0------3---3---------3---3-----------|
E --------------------------------------------------------------|
AmDark You F5can't come soon enough for me AmSaved From one F5more day of misery

Bridge 1

   F5
   “Everything I love...”
e -------0--------0---------0---------0-------|
B ---------1--------1----------1--------1-----|
G -----------2-------------------2------------|
D ----3------------------3--------------------|
A --3-----------3------3------------3---------|
E --------------------------------------------|
   C
   “Get back...”
e -------0--------0--------0--------0-----------|
B ---------1--------1--------1--------1---------|
G -----------0-----------------0----------------|
D ----2------------------2-----------------2----|
A --3----------3-------3----------3------3------|
E ----------------------------------------------|
F5Everything I love CGet back for me now F5Everyone I love CI need you now

Verse 2

   Am                              F5
   “Don’t...”                           “Forget a million miles...”
e -----------0---------------0--------------0-------------0---------|
B -------------1---------------1--------------1-------------1-------|
G ------2--------2-------2-------2---------------2-------------2----|
D ----2---2--------2-------2-------2-----3-------------3---------3--|
A -0-------------------0---------------3---3---------3---3----------|
E ------------------------------------------------------------------|
AmDon't F5Forget a million miles for me AmSafe And anF5other day passed by me

Bridge 2

   F5
   “Everything I love...”
e -------0--------0---------0---------0-------|
B ---------1--------1----------1--------1-----|
G -----------2-------------------2------------|
D ----3------------------3--------------------|
A --3-----------3------3------------3---------|
E --------------------------------------------|
   C
   “Get back...”
e -------0--------0--------0--------0-----------|
B ---------1--------1--------1--------1---------|
G -----------0-----------------0----------------|
D ----2------------------2-----------------2----|
A --3----------3-------3----------3------3------|
E ----------------------------------------------|
F5Everything I love CGet back for me now F5Everyone I love CI need you now

Chorus 1

    C                       F5
    “So conned...”    “...to me too...”
e --0--0--0--0--         e --0--0--0--0--|
B --1--1--1--1--         B --1--1--1--1--|
G --0--0--0--0-- (x4)    G --2--2--2--2--| (x4)
D --2--2--2--2--         D --3--3--3--3--|
A --3--3--3--3--         A --3--3--3--3--|
E --x--x--x—-x--         E --x--x--x--x--|
CSo I conned, I lied I lied to F5me too (so what?) CSo I conned, I lied I lied to F5me too (so what?)
   Am“Hold...”      “F5Know will...”
     X               X
e ---0--0--0--0------0--0--0--0---|
B ---1--1--1--1------1--1--1--1---|
G ---2--2--2--2------2--2--2--2---|
D ---2--2--2--2------3--3--3--3---|
A ---0--0--0--0------3--3--3--3---|
E ---x--x--x--x------x--x--x--x---|
AmHold Out for the ones you kF5now will love you AmHide Out from the ones you F5know will love you F5You, you too (In this part the chords are the same as before, but some notes are switched, so that match the riff heard in the background.
Strum quickly)

C F5

e ---0-0-0---0-0-0---0---0---0-0-0-0---0-0-0---| B ---0-0-0---1-1-1---3---1---1-1-1-1---1-1-1---| G ---0-0-0---0-0-0---0---0---2-2-2-2---0-0-0---| (x4) D ---2-2-2---2-2-2---2---3---3-3-3-3---3-3-3---| A ---3-3-3---3-3-3---3---3---3-3-3-3---3-3-3---| E ---------------------------------------------|

Verse 3

AmNight F5To the edge and barely there

Am

To mF5ake my move, I'm almost there

Bridge 3

   F5
   “Everything I say...”
e -------0--------0---------0---------0---------|
B ---------1--------1----------1--------1-------|
G -----------2-------------------2--------------|
D ----3------------------3----------------------|
A --3-----------3------3------------3-----------|
E ----------------------------------------------|
   C
   “I say...”
e -------0--------0--------0--------0-----------|
B ---------1--------1--------1--------1---------|
G -----------0-----------------0----------------|
D ----2------------------2-----------------2----|
A --3----------3-------3----------3------3------|
E ----------------------------------------------|
F5Everything I say CI say to me first F5Everything I do CI do to me first

Chorus 2

    C                       F5
    “So what...”      “...to me too...”
e --0--0--0--0--         e --0--0--0--0--|
B --1--1--1--1--         B --1--1--1--1--|
G --0--0--0--0-- (x4)    G --2--2--2--2--| (x4)
D --2--2--2--2--         D --3--3--3--3--|
A --3--3--3--3--         A --3--3--3--3--|
E --x--x--x—-x--         E --x--x--x--x--|
CSo what, I lied I lied to F5me too CSo what, I lied I lied to F5me too
   Am“Hold...”      “F5Know will...”
     X               X
e ---0--0--0--0------0--0--0--0---|
B ---1--1--1--1------1--1--1--1---|
G ---2--2--2--2------2--2--2--2---|
D ---2--2--2--2------3--3--3--3---|
A ---0--0--0--0------3--3--3--3---|
E ---x--x--x--x------x--x--x--x---|
AmHold Out for the ones you F5know will love you AmHide Out from the ones you F5know will love you F5You, you too
     C                       F5
e ---0-0-0---0-0-0---0---0---0-0-0-0---0-0-0---|
B ---0-0-0---1-1-1---3---1---1-1-1-1---1-1-1---|
G ---0-0-0---0-0-0---0---0---2-2-2-2---0-0-0---|  (x4)
D ---2-2-2---2-2-2---2---3---3-3-3-3---3-3-3---|
A ---3-3-3---3-3-3---3---3---3-3-3-3---3-3-3---|
E ---------------------------------------------|

Outro

AmDark You F5can't come soon enough for me GI won't regEmret saying this This Gthing that I'm Emsaying GIs it better than Emkeeping my mouth shut GThat goes without Emsaying DCall, GbreakD itEm off DCall, GbreakD my oEmwn heart CMaybe I would have Gbeen something you'd be gDood at CMaybe you would have Gbeen something I'd be gDood at CBut now we'll never Dknow I Gwon't be sad, but in Emcase I go there CEverydDay, to Gmake myself feel Embad There's a chance that I'll Cstart to Dwonder If this was the thing to Gdo GI won't be Emout long But I still Gthink it better Emif GYou take your Emtime coming over here GI think that's Emfor the best DCall, GbreakD itEm off DCall, GbreakD my oEmwn heart CMaybe I would have Gbeen something you'd be gDood at CMaybe you would have Gbeen something I'd be gDood at CBut now we'll never Dknow I Gwon't be sad, but in Emcase I go there CEverydDay, to Gmake myself feel Embad There's a chance that I'll Cstart to Dwonder if this was the thing to Gdo I'll Cstart to Dwonder if this was the thing to Gdo

All Content on this page is the property of the copyright owner of the original composition.