Tenacious D - The Metal Text Guitar Tab

Learn the song with the online tablature player
                             The Metal - Tenacious D

1.  Intro and Verse
e|---------------------------------------------------------------------------|
B|---------------------------------------------------------------------------|
G|---------------------------------------------------------------------------|
D|--2-------------------------------------2----------------------------------|
A|--2----------------3p2p0h2p0--2h3p2p0---2----------------3p2p0h2-----------|
E|--0--0--0--3p0--0-----------------------0--0--0--3p0--0--------------------|

e|---------------------------------------------------------------------------|
B|---------------------------------------------------------------------------|
G|---------------------------------------------------------------------------|------x5
D|--2-------------------------------------3--3--5p3p2h3p2p0h2p0--------------|
A|--2----------------3p2p0h2p0--2h3p2p0---3--3-------------------------------|
E|--0--0--0--3p0--0-----------------------1--1-------------------------------|

2. Just before the chorus
e|---------------------------------------------------------------------------|
B|---------------------------------------------------------------------------|
G|---------------------------------------------------------------------------|
D|--2-------------2--2---------------2-------------2--2----------------------|
A|--2-------------2--2---------------2-------------2--2----------------------|
E|--0--0--0--3p0--0--0---------------0--0--0--3p0--0--0----------------------|

3. Chorus
e|---------------------------------------------------------------------------|
B|---------------------------------------------------------------------------|
G|--5--3--5--3--5--6--5--3--5--3--12--11-10----------------------------------|------x2
D|--5--3--5--3--5--6--5--3--5--3--12--11-10----------------------------------|
A|--7--5--7--5--7--8--7--5--7--5--10--9--8-----------------------------------|
E|---------------------------------------------------------------------------|

4. Bridge
e|--7-----------------5-----------5-------3-----------3----------------------|
B|--------------8-----------7------------------------------------------------|
G|--------9--------------7-----------7----------5-----------1--2--0--2-------|
D|-----9-----------7--7--------7-------------5-----------5--5--3--2--3-------|
A|--7--------7----------------------------5--------5-------------------------|
E|---------------------------------------------------------------------------|

e|---------------------------------------------------------------------------|
B|--8--------------8------7-----------7-----0-----------0--------------------|
G|----------9-------------------7--------------------------0-----------------|
D|------10------------10-----9--------------------2--------------------------|
A|--10---------10---------9--------9-----9-----2-----------------------------|
E|------------------------------------------0--------0-----------------------|

5. Outro (DROP D)
e|---------------------------------------------------------------------------|
B|---------------------------------------------------------------------------|
G|---------------------------------------------------------------------------|
D|--0---------------------0--------------------------------------------------|
A|--0--3~-2~/6~-5~/9~-8~--0--3~-2~/6~-5~/9~-8~-------------------------------|
D|--0---------------------0--------------------------------------------------|

e|---------------------------------------------------------------------------|
B|---------------------------------------------------------------------------|
G|---------------------------------------------------------------------------|------x2
D|--0--0-----10--9----0--0---------------------------------------------------|
A|--0--0-----10--9----0--0-------2h3p2p0--2p0--------------------------------|
D|--0--0--0--10--9----0--0--2p0---------------3p2----------------------------|

e|---------------------------------------------------------------------------|
B|---------------------------------------------------------------------------|
G|---------------------------------------------------------------------------|
D|---------------------------------------------------------------------------|
A|----------------------------------------------3-2-6-5-9-8------------------|
D|--0-0-0-0-0-0-3-2-0-0-0-0-0-0-2-3-0-0-0-0-0-0------------------------------|
    trill

e|---------------------------------------------------------------------------|
B|---------------------------------------------------------------------------|
G|---------------------------------------------------------------------------|
D|---------------------------------------------------------------------------|
A|-------2h3p2p0--2p0--------------2h3p2p0--2p0------------------------------|
D|--0h2---------------3p2-0---0h2---------------3p2-0------------------------|

| /  slide up
| \  slide down
| h  hammer-on
| p  pull-off
| ~  vibrato
| +  harmonic
| x  Mute note