Theatres Des Vampires - La Danse Macabre Du Vampire Text Guitar Tab

Learn the song with the online tablature player
SONG NAME: La Danse Macabre Du Vampire - Band Name: Theatres Des Vampires

e|---------------------------------------------------------------------------|
B|---------------------------------------------------------------------------|
G|---------------------------------------------------------------------------|   Verse (x2)
D|--4-------------4-------------7-------------6------------------------------|
A|--4-------------4-------------5-5-5-5-5-5-5 4-4-4-4-4-4-4------------------|
E|--2-2-2-2-2-2-2-2-2-2-2-2-2-2-------------------------------- -------------|
      p.m.-------   p.m.-------   p.m.-------   p.m.-------

  unholy bloody fucking suckers...

e|---------------------------------------------------------------------------|
B|---------------------------------------------------------------------------|
G|---------------------------------------------------------------------------| chorus
D|--4------------------------------------------------------------------------|
A|--4----------------------------11--------------12--------------------------|
E|--2----------------------------9---------------10--------------------------|

danse, danse, danse, the vampire   danse, danse, danse, the vampire

e|---------------------------------------------------------------------------|
B|---------------------------------------------------------------------------|
G|---------------------------------------------------------------------------| lead guitar (x2)
D|----------11~-----------12~----------11~-----------------------------------|
A|--9-11-12-------9-11-12------9-11-12------9-11-12-11-9---------------------|
E|-------------------------------------------------------9~------------------|

|p.m.palm muting
| /  slide up
| \  slide down
| h  hammer-on
| p  pull-off
| ~  vibrato
| +  harmonic
| x  Mute note