Third Eye Blind - Never Let You Go Chords

Main Riff
 
No chord
    
Standard guitar tuning:
E
A
D
G
B
E
No capo
The rhythm intro goes like this:
E---------------------------           Just do this over and over
B---------------------------           throughout the verse.
G---9------------9----------
D---9--9--7-7----9--9--7-7-7
A---7--9--7-7----7--9--7-7-7
E------7--5-5-------7--5-5-5
The little solo riff at the beginning and in other places:
E---2-4-2-0------2-4-2-0-----
B-----------2------------2--0
G----------------------------
D----------------------------
A----------------------------
E----------------------------
I'm not sure about the chorus. Somebody should figure it out and submit it.

All Content on this page is the property of the copyright owner of the original composition.