Tina Dico - Break Of Day Chords

 
         
         
         
         
         
X
X
1
3
2
2 fr
         
         
         
         
         
X
4
3
1
2
1
5 fr
         
         
         
         
         
X
1
2
3
4
1
5 fr
         
         
         
         
         
X
1
4
4
4
X
7 fr
         
         
         
         
         
4
3
1
1
1
X
7 fr
         
         
         
         
         
3
2
1
1
1
4

10 fr
         
         
         
         
         
1
3
4
2
1
1
12 fr
         
         
         
         
         
X
X
1
3
4
3
5 fr
         
         
         
         
         
X
X
No chord
    
Standard guitar tuning:
E
A
D
G
B
E
No capo
--0-----0--|
--0-----0--|
--7-----1--|
--0-----0--|
--9-----2--|
--9-----2--|

Pre-chorus

D D D D D D

--0--
--0--
--4--
--0--
--5--
--5--

Chorus

played twice) - (D UUD UUD for each):
--0----0----0----0--|
--0----0----0----0--|
--7----4----6----4--|
--0----0----0----0--|
--9----5----7----5--|
--9----5----7----5--|

Bridge

D UUD UUD DU for each below - if one chord is held for two counts in the song, i wrote the chord twice - therefore, that strumming pattern goes for each one: i.e. strum
for 004055, then again for same, then strum for 000022, and again for same, then strum
004055, and again for same )
--0----0----0----0----0----0--| * = end strum on down (don't do last UUD DU)
--0----0----0----0----0----0--|
--4----4----0----0----4----4--|
--0----0----0----0----0----0--|
--5----5----2----2----5----5--|
--5----5----2----2----5----5--|
I know (for some) it looks difficult.. But, practise, practise.. and you'll get there :) Toodles!

All Content on this page is the property of the copyright owner of the original composition.