Tokio Hotel - Der Letzte Tag Chords

Main Riff
Main Riff
 
         
         
         
         
         
X
3
2
1
3 fr
         
         
         
         
         
X
1
2
3
4
1
8 fr
         
         
         
         
         
1
3
4
2
1
1
3 fr
         
         
         
         
         
X
1
X
3
4
1
5 fr
         
         
         
         
         
3
2
1
1
1
4
10 fr
         
         
         
         
         
X
X
1
3
4
3

12 fr
         
         
         
         
         
X
4
3
1
2
1
3 fr
         
         
         
         
         
X
No chord
    
Standard guitar tuning:
E
A
D
G
B
E
No capo

Intro

1C. Gitarre
e--------------------------------- \
b---------------------------------  \
G-----11--------------------------   \
D---11----------------------------   / 2x
A-9-------------------------------  /
E--------------------------------- /
2. Gitarre
e -------------------------------- \
b --------------------------------  \
G --------------------------------   \
D --------------------------------   / 2x
A -------------3-2----------------  /
E -2-2-2-2-2-2------3-3-3-3-3-3-3- /

Verse1

1. Gitarre
e--------------------------------- \
b---------------------------------  \
G------11-------------------------   \
D---11----------------------------   / 4x
A-9-------------------------------  /
E--------------------------------- /
2. Gitarre
e -------------------------------- \
b --------------------------------  \
G --------------------------------   \
D --------------------------------   / 4x
A -------------3-2----------------  /
E -2-2-2-2-2-2------3-3-3-3-3-3-3- /

Bridge

 Dis
p.m.......................................
e ------------------------------------------------
b ------------------------------------------------
G ---------------7--7-7--7-7-----------------7-7--
D -9--9-9--9-9---7--7-7--7-7---9--9-9--9-9---7-7--
A -9--9-9--9-9---5--5-5--5-5---9--9-9--9-9---5-5--
E -7--7-7--7-7-----------------7--7-7--7-7--------

Chorus

Dis

e -------------------------------------------- \
b --------------------------------------------  \
G -11-11-11-11--7-7-7-7--14-14-14-14--9-9-9-9-   \
D -11-11-11-11--7-7-7-7--14-14-14-14--9-9-9-9-   / 3x
A -9--9--9--9---5-5-5-5--12-12-12-12--7-7-7-7-  /
E -------------------------------------------- /
e ---------------------------- \
b ----------------------------  \
G ------------------7-7-7-7-7-   \
D -9-9-9-9-9-9-9-9--7-7-7-7-7-   / 2x
A -9-9-9-9-9-9-9-9--5-5-5-5-5-  /
E -7-7-7-7-7-7-7-7------------ /

Verse2

1. GGiitarre C Gi Dis
e--------------------------------- \
b---------------------------------  \
G------11-------------------------   \
D---11----------------------------   / 2x
A-9-------------------------------  /
E--------------------------------- /
2. Gitarre
p.m...   ........   .............
e -------------------------------- \
b --------------------------------  \
G --------------5-4---------------   \
D -4-4-4-4-4-4--5-4--5-5-5-5-5-5-5   / 4x
A -4-4-4-4-4-4--3-2--5-5-5-5-5-5-5  /
E -2-2-2-2-2-2-------3-3-3-3-3-3-3 /
Brigde2: (Distortion)
p.m.......................................
e ------------------------------------------------
b ------------------------------------------------
G ---------------7--7-7--7-7-----------------7-7--
D -9--9-9--9-9---7--7-7--7-7---9--9-9--9-9---7-7--
A -9--9-9--9-9---5--5-5--5-5---9--9-9--9-9---5-5--
E -7--7-7--7-7-----------------7--7-7--7-7--------

Chorus2

Dis

e -------------------------------------------- \
b --------------------------------------------  \
G -11-11-11-11--7-7-7-7--14-14-14-14--9-9-9-9-   \
D -11-11-11-11--7-7-7-7--14-14-14-14--9-9-9-9-   / 3x
A -9--9--9--9---5-5-5-5--12-12-12-12--7-7-7-7-  /
E -------------------------------------------- /
e ---------------------------- \
b ----------------------------  \
G ------------------7-7-7-7-7-   \
D -9-9-9-9-9-9-9-9--7-7-7-7-7-   / 2x
A -9-9-9-9-9-9-9-9--5-5-5-5-5-  /
E -7-7-7-9-9-9-9-9------------
Zwischenspiel: (Distortion) tabs like chorus Bridge like above Chorus like above 2x Zwischenspiel like chorus ending i hope its a bit right ich hoffe es ist ein bisschen richtich=) euer j.k.

Ending


All Content on this page is the property of the copyright owner of the original composition.