Tool - Jimmy Chords

Press F5 Riff
 
         
         
         
         
         
X
X
1
3
2
2 fr
         
         
         
         
         
X
4
3
1
2
1
5 fr
         
         
         
         
         
X
1
2
3
4
1
5 fr
         
         
         
         
         
X
1
4
4
4
X
7 fr
         
         
         
         
         
4
3
1
1
1
X
7 fr
         
         
         
         
         
3
2
1
1
1
4

10 fr
         
         
         
         
         
1
3
4
2
1
1
12 fr
         
         
         
         
         
X
X
1
3
4
3
5 fr
         
         
         
         
         
X
X
         
         
         
         
         
X
1
2
3
5 fr
         
         
         
         
         
1
3
4
2
1
1
2 fr
         
         
         
         
         
X
1
1
1
4
         
         
         
         
         
X
X
1
2
2 fr
         
         
         
         
         
3
2
1
1
1
4
7 fr
         
         
         
         
         
X
X
1
3
4
3

9 fr
         
         
         
         
         
X
4
3
1
2
1
12 fr
         
         
         
         
         
X
1
3
3
3
1
No chord
    
Standard guitar tuning:
E
A
D
G
B
E
No capo
Intro\Verse
e-|---------------------------|
B-|---------------------------|
G-|---------------------------|
D-|7-0-0-3--7-0-0-5--7-0-0-1-3|
A-|7-0-0-3--7-0-0-5--7-0-0-1-3|
D-|7-0-0-3--7-0-0-5--7-0-0-1-3|

Bridge

e-|---------------|
B-|---------------|
G-|---------------|

D-|0-10-12-0-12-13|

A-|0-10-12-0-12-13|

D-|0-10-12-0-12-13|

Rythm Fill
e-|---------------------|
B-|---------------------|
G-|7-5-7-5-7---7-5-7-5-7|
D-|7-5-7-5-7---7-5-7-5-7|
A-|5-3-5-3-5---5-3-5-3-5|
D-|---------------------|

All Content on this page is the property of the copyright owner of the original composition.