Tragically Hip - Bobcaygeon Text Guitar Tab

Learn the song with the online tablature player
Chords Used:

d--0----0---0---0-------4----|
b--3----3---0---1---0---3----|
G--4----0---0---0---0---2----|
D--4----5---0---2---2---0----|
G--4----5---0---2---4--------|
D-------------------2--------|
   Bm   C   G  Am   Em  D

For the Em, I play the bass note with my thumb.   If you can't play with your thumb,
the low D up to G to play it like this:

d---
b-0-
G-0-
D-2-
G-4-
G-4-

Intro

d--0-0-0--0-0-------0--0---0-0---0----|
b--1-1-1--0-0-1p0---1--1---1-1h3-3----|
G--0-0-0--0-0-----0-0--0---0-0---0----|
D--2-2-2--0-0-------2--2---2----------|
G---------0-0-------2--2---2----------|
D-------------------------------------|

Verse
G               Am

Chorus
Bm              C               G               Am

Bridge
Em              C               G               D
                Em              C               D               D

Outro
Same as verse, but end on Em