U2 - New Years Day Text Bass Tab

Learn the song with the online tablature player
I looked at all the other tabs here and they are kinda hard, and
a bit off.  I made my own and i think it sounds a lot better

New Year's Day
-U2

Intro/Bridge
G|---------------------------------------------------------------------
D|----6-6-9-6--6-6-6-6-------------------------------------------------
A|-----------------------6-----------6-6-9-6--6-6-6-6-6-6-9-6--6-6-6-6-
E|--------------------7-7--7--7-7-7-7----------------------------------

G|---------------------------------|-----------------------------------
D|--6-6-9-6--6-6-6-6---------------|-----------------------------------
A|---------------------6-----------|-9-------7-------11------9------7--
E|------------------7-7--7--7-7-7-7|-----------------------------------
                                     reapeat each of these notes about 16 times
Verse
G|---------------------------------------------------------------------
D|----6-6-9-6--6-6-6-6-------------------------------------------------
A|-----------------------6-----------6-6-9-6--6-6-6-6-6-6-9-6--6-6-6-6-  Repeat x6
E|--------------------7-7--7--7-7-7-7----------------------------------

Chorus
G|-----------------------------------------------
D|-----------------------------------------------
A|-9----------11-----------9-----------7--------- reapeat each one abut 16 times
E|-----------------------------------------------

Order:
Intro
Verse
Chorus 1x
Verse
Chorus 2x
Bridge
Verse
Chorus

That's it! Easier, eh?