U2 - Sometimes You Can't Make It On Your Own Text Bass Tab

Learn the song with the online tablature player
First Verse:

G|---------|---------|---------|---------|---------|---------|---------|---------|
D|*--------|---------|---------|---------|---------|---------|---------|--------*|
A|*--------|---------|---------|---------|---------|-5~------|---------|--------*|
E|-5~------|------7-|-3~------|------5-|-2~------|-----0p2-|-5~------|------7-|

G|---------|---------|---------|---------|---------|---------|---------|---------|
D|*--------|---------|---------|---------|---------|---------|---------|--------*|
A|*--------|---------|---------|---------|---------|-5~------|---------|--------*|
E|-5~------|------7-|-3~------|------5-|-2~------|-------7-|-5~------|---------|
 use your little finger to hold the note on the 14th fret (D string) in this part
G|-------------------|-------------------|-------------------|-------------------|
D|*--14~-------------|---14~-------------|---14~-------------|---14~-------------|
A|*12---12p14#-14p12-|-12---12p14#-14p12-|-10---12p14#-14p12-|-10---12p14#-14p12-|
E|-------------------|-------------------|-------------------|-------------------|

G|-------------------|-------------------|-------------------|-------------------|
D|*--14~-------------|---14~-------------|---14~-------------|---14~-------------|
A|*-----12p14#-14p12-|------12p14#-14p12-|-12---12p14#-14p12-|-12---12p14#-14p12-|
E|-14----------------|-10----------------|-------------------|-------------------|

Pre-Chorus

G|-------------------|-------------------|-------------------|-------------------|
D|*------------------|-------------------|-------------------|-------------------|
A|*17~-------(17)---|/17-17----17----17|/12~---------------|-12-12----12-12(7)|
E|-------------------|-------------------|-------------------|-------------------|

G|-------------------|-------------------|-------------------|-------------------|
D|*------------------|-------------------|-------------------|------------------*|
A|*9~-------(9)-----|/9-9----9--------9|/17~---------------|-17-17---14#-14p12*|
E|-------------------|-------------------|-------------------|-------------------|

Chorus

G|-----------------|-----------------|-----------------|-----------------|
D|*----------------|-----------------|-----------------|----------------*|
A|*9-9-9-9-9-9-9-9|-7-7-7-7-7-7-7-7-|-5-5-5-5-5-5-5-5-|-5-5-5-5-5-5-5-5*|
E|-----------------|-----------------|-----------------|-----------------|

G|-----------------|-----------------|-----------------|-----------------|
D|*----------------|-----------------|-----------------|----------------*|
A|*9-9-9-9-9-9-9-9|-7-7-7-7-7-7-7-7-|-5-5-5-5-5-5-5-5-|-5-5-5-5-5-5-5-5*|
E|-----------------|-----------------|-----------------|-----------------|

Second Verse:

G|-------------------|-------------------|-------------------|-------------------|
D|*--14~-------------|---14~-------------|---14~-------------|---14~-------------|
A|*12---12p14#-14p12-|-12---12p14#-14p12-|-10---12p14#-14p12-|-10---12p14#-14p12-|
E|-------------------|-------------------|-------------------|-------------------|

G|-------------------|-------------------|-------------------|-------------------|
D|*--14~-------------|---14~-------------|---14~-------------|---14~-------------|
A|*-----12p14#-14p12-|------12p14#-14p12-|-12---12p14#-14p12-|-12---12p14#-14p12-|
E|-14----------------|-10----------------|-------------------|-------------------|

Pre-Chorus

G|-----------------|-----------------|-----------------|-----------------|
D|*----------------|-----------------|-----------------|-----------------|
A|*5-5-5-5-5-5-5-5-|-5-5-5-5-5-5-5-5-|-----------------|-----------------|
E|-----------------|-----------------|-5-5-5-5-5-5-5-5-|-5-5-5-5-5-5--4--|

G|-----------------|-----------------|-----------------|-----------------|
D|*----------------|-----------------|-----------------|----------------*|
A|*----------------|-----------------|-5-5-5-5-5-5-5-5-|-5-5-5-5-5-5-5-5*|
E|-2-2-2-2-2-2-2-2-|-2-2-2-2-2-2-2-2-|-----------------|-----------------|

Chorus

G|-----------------|-----------------|-----------------|-----------------|
D|*----------------|-----------------|-----------------|----------------*|
A|*----------------|-----------------|-5-5-5-5-5-5-5-5-|-5-5-5-5-5-5-5-5*|
E|-2-2-2-2-2-2-2-2-|-0-0-0-0-0-0-0-0-|-----------------|-----------------|

G|-----------------|-----------------|-----------------|-----------------|
D|*----------------|-----------------|-----------------|----------------*|
A|*----------------|-----------------|-5-5-5-5-5-5-5-5-|-5-5-5-5-5-5-5-5*|
E|-2-2-2-2-2-2-2-2-|-0-0-0-0-0-0-0-0-|-----------------|-----------------|

Bridge

G|-----------------------------------|-----------------------------------|
D|*----------------------------------|----------------------------------*|
A|*-------3~----------5~-------------|--------3~------------------------*|
E|-1~-------------------------------|-1~----------------5~------------|

G|-----------------------------------|-----------------------------------|
D|*----------------------------------|----------------------------------*|
A|*-------3~----------5~-------------|-5---5-------5---5-----------5-5-*|
E|-1~-------------------------------|-----------------------------------|

G|-----------------|-----------------|-----------------|-----------------|
D|*----------------|-----------------|-----------------|-----------------|
A|*----------------|-----------------|-----------------|-----------------|
E|-5-5-5-5p7---7p5-|-5--5-5-5--5-5-4-|-2--2-2-2--2-2-2-|-2-2---2-2-2-2-2-|

G|-----------------|-----------------|-----------------|-----------------|
D|-----------------|-----------------|-----------------|-----------------|
A|-5-5-5-5---5-5-5-|-----------------|-----------------|-----------------|
E|-----------------|-0--0-0-0--0-0-0-|-5-5-5-5p7---7p5-|-5--5-5-5--5-5-5-|

G|-----------------|-----------------|-----------------|-----------------|
D|-----------------|-----------------|-----------------|-----------------|
A|-5-5-5-5---5-5-5-|-5--5-5-5--5-5-5-|-----------------|-----------------|
E|-----------------|-----------------|-5--5-5-5--5-5-5-|-5--5-5-5--5-5-4-|

G|-----------------|-----------------|-----------------|-----------------|
D|-----------------|-----------------|-----------------|----------------*|
A|-----------------|-----------------|-5-5-5-5---5-5-5-|-5--5-5-5--5-5-5*|
E|-2--2-2-2--2-2-2-|-2-2---2-2-2-2-2-|-----------------|-----------------|

Chorus

G|-----------------|-----------------|-----------------|-----------------|
D|*----------------|-----------------|-----------------|----------------*|
A|*----------------|-----------------|-5-5-5-5-5-5-5-5-|-5-5-5-5-5-5-5-5*|
E|-2-2-2-2-2-2-2-2-|-0-0-0-0-0-0-0-0-|-----------------|-----------------|

G|-----------------|-----------------|-----------------|-----------------|
D|*----------------|-----------------|-----------------|----------------*|
A|*----------------|-----------------|-5-5-5-5-5-5-5-5-|-5-5-5-5-5-5-5-5*|
E|-2-2-2-2-2-2-2-2-|-0-0-0-0-0-0-0-0-|-----------------|-----------------|

G|-----------------|-----------------|-----------------|-----------------|
D|*----------------|-----------------|-----------------|----------------*|
A|*----------------|-----------------|-5-5-5-5-5-5-5-5-|-5-5-5-5-5-5-5-5*|
E|-2-2-2-2-2-2-2-2-|-0-0-0-0-0-0-0-0-|-----------------|-----------------|

G|-----------------|-----------------|-----------------|-----------------|
D|*----------------|-----------------|-----------------|----------------*|
A|*----------------|-----------------|-5-5-5-5-5-5-5-5-|-5-5-5-5-5-5-5-5*|
E|-2-2-2-2-2-2-2-2-|-0-0-0-0-0-0-0-0-|-----------------|-----------------|

Outro

G|-------------------|-------------------|-------------------|-------------------|
D|*--14~-------------|---14~-------------|---14~-------------|---14~-------------|
A|*12---12p14#-14p12-|-12---12p14#-14p12-|-12---12p14#-14p12-|-12---12p14#-14p12-|
E|-------------------|-------------------|-------------------|-------------------|

G|-------------------|-------------------|-------------------|-------------------|
D|*--14~-------------|---14~-------------|---14~-------------|---14~-------------|
A|*12---12p14#-14p12-|-12---12p14#-14p12-|-10---12p14#-14p12-|-10---12p14#-14p12~|
E|-------------------|-------------------|-------------------|-------------------|

I've been working on this song for a while, but its been at the botom of my work
list.. hehe,
well, i must admit I got some help from a friend who was working on the song too.
*oops!
Don't tell anyone! hehe* Enjoy and please rate!