U2 - The Hands That Built America Text Bass Tab

Learn the song with the online tablature player
this is very easy isn't it ? :)

bass starts after "from digging in our pockets for a reason not to say goodbye"

-4-4-4-4-4-4-4-4-2-2-2-2-2-2-2-2-0-0-0-0-0-0-0-0-0-0-0-0-0-0-0-0

-4-4-4-4-4-4-4-4-2-2-2-2-2-2-2-2-0-0-0-0-0-0-0-0-0-0-0-0-0-0-0-0

-4-4-4-4-4-4-4-4-2-2-2-2-2-2-2-2-0-0-0-0-0-0-0-0-0-0-0-0-0-0-0-0

-4-4-4-4-4-4-4-4-2-2-2-2-2-2-2-2-0-0-0-0-0-0-0-0-0-0-0-0-0-0-0-0

refrain

-----------------------------------------5-7----5-7-75/7-5
-7---7-75/7-7-7---7-75/7-7-5---5-53/5-------------------
---------------------------------------------5-7-7-5-7-75/7-5
-7-7---7-75/7-7-7-----7-75/7-7-5---5-53/5------------------
-----0---------------0-------------5--------------------------

-4-4-4-4-4-4-4-4-2-2-2-2-2-2-2-2-0-0-0-0-0-0-0-0-0-0-0-0-0-0-0-0

-4-4-4-4-4-4-4-4-2-2-2-2-2-2-2-2-0-0-0-0-0-0-0-0-0-0-0-0-0-0-0-0

bridge
-----------------------------------------5-7----5-7-75/7-5
-7---7-75/7-7-7---7-75/7-7-5---5-53/5-------------------
---0-------------0-------------5---------------------------

---------------------------------------------5-7-7-5-7-75/7-5
-7-7---7-75/7-7-7-----7-75/7-7-5---5-53/5------------------
-----0---------------0-------------5--------------------------

-4(let ring)

then no bass

then after
"a yellow line"

-4-4-4-4-4-4-4-4-2-2-2-2-2-2-2-2-0-0-0-0-0-0-0-0-0-0-0-0-0-0-0-0

-4-4-4-4-4-4-4-4-2-2-2-2-2-2-2-2-0-0-0-0-0-0-0-0-0-0-0-0-0-0-0-0

-4-4-4-4-4-4-4-4-2-2-2-2-2-2-2-2-0-0-0-0-0-0-0-0-0-0-0-0-0-0-0-0

-4-4-4-4-4-4-4-4-2-2-2-2-2-2-2-2-0-0-0-0-0-0-0-0-0-0-0-0-0-0-0-0

after that end with an open a and let it ring