Uncle Kracker - Follow Me Live Text Guitar Tab

Learn the song with the online tablature player
I really really really hate this song but I couldn't get it out of my
head so I tabbed it.

|------------------------------|
|--9h10-8-6---6---------8-8h10-|
|-----------7---7-5------------|
|-------------------7----------|
|------------------------------|
|------------------------------|

|------------------------------|
|--9h10-8-6---6--------5h6-4---|
|-----------7---7-5------------|
|-------------------7----------|
|------------------------------|
|------------------------------|