Vanilla Ice - Ice Ice Baby Chords

 
No chord
    
Standard guitar tuning:
E
A
D
G
B
E
No capo

Intro

G|------------------------------
D|------------------------------
A|-5-5-5-5-5-5---55-5-5-5-5-5---
E|-------------5---------------5

Verse

Yes, if you listen there is a bassline for the verse, amazing
isnt it?
G|--------------------------
D|--------5*-5-7-5-----------
A|5*-5-7-5---------7*-5-7-5--
E|------------------------7*-

All Content on this page is the property of the copyright owner of the original composition.