Warcry - Nada Como Tu Text Guitar Tab

Learn the song with the online tablature player
No pss aki les dejo esta tab que transcribi desde ace mucho y ps se me ocurrio compartirla
no se si este 100% correcta pero se acerca mucho.

Esta en Drop D

e|---------------------------------------------------------------------------|
B|---------------------------------------------------------------------------|
G|---------------------------------------------------------------------------|
D|-1--1-----1--1-------1--1--------4--4----3--3-------1--1----1--1----1--1---|
A|-1--1-----1--1-------1--1--------2--2----1--1-------1--1----1--1----1--1---|
D|-1--1-----1--1-------1--1---------------------------1--1----1--1----1--1---|

e|---------------------------------------------------------------------------|
B|---------------------------------------------------------------------------|
G|---------------------------------------------------------------------------|
D|-4--4------6--6------------------------------------------------------------|
A|-2--2------4--4------------------------------------------------------------|
D|---------------------------------------------------------------------------|

ESTA EN DROP D!
El verso es kasi lo mismo solo con unas variaciones entre cada powerchord