White Stripes - Seven Nation Army Text Guitar Tab

Learn the song with the online tablature player
                             SEVEN NATION ARMY - White Stripes

(Transposed to standard)

e|---------------------------------------------------------------------------|
B|---------------------------------------------------------------------------|
G|-9~~--9-9-9-9/12b--11~---9~~-9-12-14-12--12-12/14-12-11~~------------------|
D|---------------------------------------------------------------------------|
A|---------------------------------------------------------------------------|
E|---------------------------------------------------------------------------| x2

e|-12--12-15-12-12-15b--14~~~---12--12-15-17-15--15-15/17-15-14~~~-----------|
B|---------------------------------------------------------------------------|
G|---------------------------------------------------------------------------|
D|---------------------------------------------------------------------------|
A|---------------------------------------------------------------------------|
E|---------------------------------------------------------------------------|

e|-12--12-14-12-12-15b-15~~~---12--12-14-12-12-14-12-------------------------|
B|---------------------------------------------------13-12-------------------|
G|---------------------------------------------------------------------------|
D|---------------------------------------------------------------------------|
A|---------------------------------------------------------------------------|
E|---------------------------------------------------------------------------|

e|---------------------------------------------------------------------------|
B|---------------------------------------------------------------------------|
G|---------------------------------------------------------------------------|
D|---------------------------------------------------------------------------|
A|---------------------------------------------------------------------------|
E|-3-3-3-3-3-3-3-3-5-5-5-5-5-5-5-5-0~~~----0~~~------------------------------|
PM . . . . . . . . . . . . . . . .

END