Wilco - Impossible Germany Text Guitar Tab

Learn the song with the online tablature player
This song is 3 (or more) guitar parts blended. I will refer to them as Right, Left and
for lack of better nomenclature. This is a fantastic song and I didn't see a tab for it
I decided to write one. It's not perfect but I'm hoping it inspires someone to fix it up
make it more complete. Having 3 or 4 guitar parts makes it rather tough to tab out but
it is anyway. Enjoy.

There is FAR too much going on here to make much sense of it.. start with this riff
E|----------------------------------------------------------------|
B|----------------------------------------------------------------|
G|----------------------------------------------------------------|
D|---12(x8)-10(x8)-9(x8)-7(x)-9(x16)-10(x8)-9(x8)-----------------|
A|----------------------------------------------------------------|
E|----------------------------------------------------------------|

Then use these chords and pick the notes out.. always variable, write your own.
E|--------------------------------------------------|
B|--------------------------------------------------|
G|------5----2------5----2---------------2-------5--|
D|------5----2------5----2------5--------2-------5--|
A|--3--------0----3------0------5----2---0-----3----|
E|----------------------------3------0--------------|

Use FIGURE 1 and FIGURE 2 in here as well as endings to the verse

Common fills... play around with them:
E|----------------------------|
B|----------------------------|
G|-------12-------------------|
D|---/14----------10-9-7------|
A|---------------------- 10--7|
E|----------------------------|

Solo riff has been tabbed out.. write your own though :)