William Fitzsimmons - Fade And Then Return Chords

 
         
         
         
         
         
X
3
2
1
3 fr
         
         
         
         
         
X
1
2
3
4
1
8 fr
         
         
         
         
         
1
3
4
2
1
1
3 fr
         
         
         
         
         
X
1
X
3
4
1
5 fr
         
         
         
         
         
3
2
1
1
1
4
10 fr
         
         
         
         
         
X
X
1
3
4
3

12 fr
         
         
         
         
         
X
4
3
1
2
1
3 fr
         
         
         
         
         
X
         
         
         
         
         
X
2
3
1
2 fr
         
         
         
         
         
X
1
2
3
4
X
5 fr
         
         
         
         
         
X
X
9 fr
         
         
         
         
         
X
X
         
         
         
         
         
2
3
3 fr
         
         
         
         
         
X
X
2
4
1
7 fr
         
         
         
         
         
X
1
3
4
2
1
2 fr
         
         
         
         
         
X
X
1
3
4
2
3 fr
         
         
         
         
         
X
3
2
4
1
4 fr
         
         
         
         
         
X
4
3
1
2
X

12 fr
         
         
         
         
         
1
3
4
1
1
1
No chord
    
Standard guitar tuning:
E
A
D
G
B
E
Capo on 5 fret
Chords:
    C   C/B  A/D   Em  Em
E---7----7--------------7--------|
B---8----8----7----8----8--------|
G—-(0)--(0)---7—---9---(9)-------|
D------------(0)-----------------|
A--------------------------------|
E---8----7----5----0----0--------|
If any requests or questions, please message me or comment!
Tab: (get some reverb and other effects in this)
E-------7-------------------7----------------------------------|
B-----8---8------8--------8---8------8----------7--------------|
G---------------------------------------------7---7-----7------|
D--------------------------------------------------------------|
A--------------------------------------------------------------|
E---8---------8---------7---------7---------5--------5---------|
E------------------------|
B--------8---------------|
G------9---9----9--------|
D------------------------|
A------------------------|
E---0--------0-----------|
E-------7-------------------7-----------------------------------|
B-----8---8------8--------8---8------8----------7---------------|
G---------------------------------------------7---7-----7-------|
D---------------------------------------------------------------|
A---------------------------------------------------------------|
E---8---------8---------7---------7---------5--------5----------|
E---------------------------|
B--------7------------------|
G------7---7------7---------|
D---------------------------|
A---------------------------|
E---5----------5------------|

C C/B A/D Em

C C/B A/D A/D

C I've C/Bbeen locked A/Dout for Emtwenty years or Cso C/B What is this A/Dsage on me now C If C/Bmemory A/Dserves then EmI should forget Cnot C/B This staA/Dring glass

C C/B A/D Em

C C/B A/D A/D

C My C/Bleg's so A/Dfrail like EmI havent stood in Cyears C/B This gate's A/Dso wrong C I C/Bcrawl towards A/Dyou faEmmiliar I was Cwhere C/B The name esA/Dcapes me now Fade and Cthen return Em A/D Fade and Cthen return Em A/D C Like C/Bbabies A/Dbreath I'Emm holding ontoC air C/B My lung's A/Da thief C Should C/BI know A/Dyou a Emstranger though you Cseem C/B You feel A/Dlike home

C C/B A/D Em

C C/B A/D A/D

Fade and Cthen return Em A/D Fade and Cthen return Em A/D Fade and Cthen return (EmFade anA/Dd then return) Fade and Cthen return (EmFade anA/Dd then return) (What comCes around) FaEmde and A/Dthen return repeat then fade (then return) And that’s it! Please rate, comment and correct me! Cheers...

All Content on this page is the property of the copyright owner of the original composition.