Wizo - Hund Text Guitar Tab

Learn the song with the online tablature player
intro
G:------------------------------------------------------------------
D:------------------------------------------------------------------
A:------------------------------------------------------------------
E:-0--0--0--5-0-5-7--5-1-0--5-0-5-7---------------------------------

verse, chorus & everything
G:------------------------------------------------------------------
D:------------------------------------------------------------------
A:------------------------------------------------------------------
E:--0>-5>-7>-5>-----------------------------------------------------

mexican bridge sounds something like this
G:------------------------------------------------------------------
D:----7-9-7-----------7---------------------------------------------
A:----------9-7---7-9---9-7-----------------------------------------
E:--0-----------7---------------------------------------------------

play this bridge till the end with some variations i'll work out some day