Yesterdays Revenge - Some Girls Make Weaponry Chords

 
No chord
    
Standard guitar tuning:
E
A
D
G
B
E
No capo
E|--0-0-0-----| Intro
B|--0-0-0-----|
G|--0-0-0-----|
D|--2-0-2-----|
A|--2-2-3-----|
E|------------|
E|--0----0-----0----0-------------------|  Verse
B|--0----0-----0----0-------------------|
G|--0-x4-0-x4--0-x4-0-x4-  <--- repeat--| x4
D|--2----0-----2----0-------------------|
A|--2----2-----3----3-------------------|
E|--------------------------------------|
E|--0--------------------------| Pre-Chorus
B|--0--------------------------|
G|--0-x8-----------------------|
D|--2--------------------------|
A|--3--------------------------|
E|-----------------------------|
E|--0----0----0----0----------------------------| Chorus
B|--0----0----0----0----------------------------|
G|--0-x8-0-x8-0-x8-2-x8----------  <--- repeat--| x2
D|--2----2----2----0----------------------------|
A|--3----0----2----0----------------------------|
E|-------2--------------------------------------|
E|--0-0-0-----------0-0-3-----------------| outro
B|--0-0-0-----------0-0-3-----------------|
G|--0-0-0---pause---0-0-0----------  <----| repeat
D|--2-0-2-----------2-0-2-----------------|
A|--2-2-3-----------2-2-3-----------------|
E|----------------------------------------|

All Content on this page is the property of the copyright owner of the original composition.