Yo La Tengo - Damage Text Guitar Tab

Learn song with the online tabulature player
this is one of my favorite songs from "I Can Hear the Heart..." it's really easy going 
smooth. Ira Kaplan plays a very simple acoustic riff over and over throughout the song, 
a solo a little more than halfway through.

e[---------------------------------------------------------------------]
B[---------------------------------------------------------------------]
G[---------------------------0-----------------------------------------]
D[--3--2-3-2--------3--2-3-2--------3--2-3-2---------------------------]
A[-----------3-------------------------------3-------3--3-3-3-3-3-3----]
E[---------------------------------------------------------------------]

NOTE: i get the feeling that Ira substitutes the last little bit:

e[---------------------]           e[---------------------]
B[---------------------]           B[---------------------]
G[---------------------]           G[---------------------]
D[---------------------]           D[---------------------]
A[-----3--3-3-3-3-3-3--]           A[-----3--3-3-3-3-3-0--]
E[---------------------]    with   E[---------------------]

the solo is just playing around with the notes played throughout the song.


good luck, dawgs.


tossup

(yo, yo, yo)