Youth Brigade - Where Are All The Old Man Bars Text Guitar Tab

Learn the song with the online tablature player
HERE IS THE TAB FOR MY FAVOURITE SONG BY MY FAVOURIE BAND, YOUTH BRIGADE. I SAW
IT ON ANOTHER SITE BUT IT WAS REALLY CRAPPY AND SO I CORRECTED IT AND HERE IT IS.
ENJOY!

INTRO
play over bass
E:------------------------------------------------
B:------------------------------------------------
G:-------------------------7-9-----------7-9------
D:-9--------------9--9--9--7-9--9--9--9--7-9------
A:-9--------------9--9--9--5-7--9--9--9--5-7------
E:-7-PICKSLIDE----7--7--7-------7--7--7-----------

VERSE
E:----------------------------------------
B:----------------------------------------
G:------------------7-7-7-7---------------
D:-9-9-9-9-9-9-9-9--7-7-7-7--7-7-7-7------
A:-9-9-9-9-9-9-9-9--5-5-5-5--7-7-7-7------
E:-7-7-7-7-7-7-7-7-----------5-5-5-5------

CHORUS
play all 4 lines once
E:-----------------------------------------
B:-----------------------------------------
G:-----------------------------------------
D:-5-5-5-5-5-5-5-5--9-9-9-9-9-9-9-9--------
A:-5-5-5-5-5-5-5-5--9-9-9-9-9-9-9-9--------
E:-3-3-3-3-3-3-3-3--7-7-7-7-7-7-7-7--------

E:----------------------------------------------
B:----------------------------------------------
G:----------------------------------------------
D:-5-5-5-5-5-5-5-5--9-9-9-9--9-8-7-6------------
A:-5-5-5-5-5-5-5-5--9-9-9-9--9-8-7-6------------
E:-3-3-3-3-3-3-3-3--7-7-7-7--7-6-5-4------------

E:----------------------------------------------
B:----------------------------------------------
G:----------------------------------------------
D:-5-5-5-5-5-5-5-5--9-9-9-9-9-9-9-9-------------
A:-5-5-5-5-5-5-5-5--9-9-9-9-9-9-9-9-------------
E:-3-3-3-3-3-3-3-3--7-7-7-7-7-7-7-7-------------

E:--------------------------------------------
B:--------------------------------------------
G:------------------7-7-7-7--9-9-9-9----------
D:-5-5-5-5-5-5-5-5--7-7-7-7--9-9-9-9----------
A:-5-5-5-5-5-5-5-5--5-5-5-5--7-7-7-7----------
E:-3-3-3-3-3-3-3-3----------------------------