Zager And Evans - In The Year 2525 Text Guitar Tab

Learn the song with the online tablature player
Intro
e|-4-4-4-4-2-2-2-2-0-0-0-0--6-6-6-6-6------6-2-4-----|
B|-4-4-4-4-2-2-2-2-0-0-0-0--6-6-6-6-6------6-2-4-----|
G|-4-4-4-4-3-3-3-3-1-1-1-1--8-8-8-8-8------8-3-4-----|
D|-6-6-6-6-4-4-4-4-2-2-2-2--8-8-8-8-8------8-4-6-----|
A|-6-6-6-6-4-4-4-4-2-2-2-2--6-6-6-6-6------6-4-6-----|
E|-4-4-4-4-2-2-2-2-0-0-0-0--6-6-6-6-6------6-2-4-----|

First Couple of Verse
e|-4-4-4-4-2-2-2-2-0-0-0-0--6-6-6-6-6-------|
B|-4-4-4-4-2-2-2-2-0-0-0-0--6-6-6-6-6-------|
G|-4-4-4-4-3-3-3-3-1-1-1-1--8-8-8-8-8-------|
D|-6-6-6-6-4-4-4-4-2-2-2-2--8-8-8-8-8-------|
A|-6-6-6-6-4-4-4-4-2-2-2-2--6-6-6-6-6-------|
E|-4-4-4-4-2-2-2-2-0-0-0-0--6-6-6-6-6-------|

Then it changes
e|-5-5-5-5-3-3-3-3-1-1-1-1-0-0-0-0---|
B|-5-5-5-5-3-3-3-3-1-1-1-1-0-0-0-0---|
G|-5-5-5-5-4-4-4-4-2-2-2-2-1-1-1-1---|
D|-7-7-7-7-5-5-5-5-3-3-3-3-2-2-2-2---|
A|-7-7-7-7-5-5-5-5-3-3-3-3-2-2-2-2---|
E|-5-5-5-5-3-3-3-3-1-1-1-1-0-0-0-0---|

Changes Again
e|-6-6-6-6-4-4-4-4-2-2-2-2-1-1-1-1---------|
B|-6-6-6-6-4-4-4-4-2-2-2-2-1-1-1-1---------|
G|-6-6-6-6-5-5-5-5-3-3-3-3-2-2-2-2---------|
D|-8-8-8-8-6-6-6-6-4-4-4-4-3-3-3-3---------|
A|-8-8-8-8-6-6-6-6-4-4-4-4-3-3-3-3---------|
E|-6-6-6-6-4-4-4-4-2-2-2-2-1-1-1-1---------|

Last Change
e|-6-6-6-6-4-4-4-4-2-2-2-2-1-1-1-1-----2-4-6----|
B|-6-6-6-6-4-4-4-4-2-2-2-2-1-1-1-1-----2-4-6----|
G|-6-6-6-6-5-5-5-5-3-3-3-3-2-2-2-2-----3-5-6----|
D|-8-8-8-8-6-6-6-6-4-4-4-4-3-3-3-3--x2-4-6-8----|
A|-8-8-8-8-6-6-6-6-4-4-4-4-3-3-3-3-----4-6-8----|
E|-6-6-6-6-4-4-4-4-2-2-2-2-1-1-1-1-----2-4-6----|

Outro
e|-6-6-6-6-4-4-4-4-2-2-2-2-1-1-1-1---------|
B|-6-6-6-6-4-4-4-4-2-2-2-2-1-1-1-1---------|
G|-6-6-6-6-5-5-5-5-3-3-3-3-2-2-2-2---------|
D|-8-8-8-8-6-6-6-6-4-4-4-4-3-3-3-3---------|
A|-8-8-8-8-6-6-6-6-4-4-4-4-3-3-3-3---------|
E|-6-6-6-6-4-4-4-4-2-2-2-2-1-1-1-1---------|