Zao - Kathleen Barbra Text Guitar Tab

Learn the song with the online tablature player
Intro
Guitar 1:
E-----------|
B-----------|
G-(7)--6--3-|
D-----------|
A-(5)--4--1-|
E--0--------|

Guitar 2:
E--------------|
B--------------|
G-7--13--13b15-|
D--------------|
A--------------|
E--------------|

Clean Part:
Pick a Dm (xx0231) to a D2 (xx0230)

Riff 2
("All you know, is entropy?")
E---------|--|---------|
B---------|--|---------|
G-7--6--3-|--|-7--8-10-|
D-5--4--1-|3x|-5--7--8-|
A-5--4--1-|--|-5--7--8-|
E-5--4--1-|--|-5--7--8-|

Riff 3
E------|
B------|
G------|
D-12/0-|
A-12/0-|
E-12/0-|

Break
Palm mute
E---------|---------|
B---------|---------|
G-7-6-6-7-|---------|
D---------|---------|
A---------|---------|
E---------|-0-0-0-0-|

Riff 4
("Your spirit dies, from the inside?")
E---------------------|
B---------------------|
G-13---13-------------|
D----0----0-(0-0-0-0-)|
A-11-0-11-0-(0-0-0-0-)|
E----0----0-(0-0-0-0-)|

(Break A)
(Riff 3)

End
E-----------------------------|
B-----------------------------|
G--------7-7-7-7-6----------3-|
D-0--0-0-----------(0-0-0-)---|
A-0--0-0-5-5-5-5-4-(0-0-0-)-1-|
E-0--0-0-----------(0-0-0-)---|

End on D#5 (0103xx)